ISO-10303-21;
HEADER;
/* Generated by software containing ST-Developer
 * from STEP Tools, Inc. (www.steptools.com) 
 */
/* OPTION: using custom schema-name function */

FILE_DESCRIPTION(
/* description */ (''),
/* implementation_level */ '2;1');

FILE_NAME(
/* name */ '08_1200_XXX_XXX_001.stp',
/* time_stamp */ '2021-04-21T07:32:45+02:00',
/* author */ (''),
/* organization */ (''),
/* preprocessor_version */ 'ST-DEVELOPER v16',
/* originating_system */ 'SIEMENS PLM Software NX 11.0',
/* authorisation */ '');

FILE_SCHEMA (('AUTOMOTIVE_DESIGN { 1 0 10303 214 3 1 1 1 }'));
ENDSEC;

DATA;
#10=PROPERTY_DEFINITION_REPRESENTATION(#14,#12);
#11=PROPERTY_DEFINITION_REPRESENTATION(#15,#13);
#12=REPRESENTATION('',(#16),#336);
#13=REPRESENTATION('',(#17),#336);
#14=PROPERTY_DEFINITION('pmi validation property','',#21);
#15=PROPERTY_DEFINITION('pmi validation property','',#21);
#16=VALUE_REPRESENTATION_ITEM('number of annotations',COUNT_MEASURE(0.));
#17=VALUE_REPRESENTATION_ITEM('number of views',COUNT_MEASURE(0.));
#18=SHAPE_REPRESENTATION_RELATIONSHIP('None',
'relationship between rhen335802FFwerd-None and rhen335802FFwerd-None',
#30,#19);
#19=ADVANCED_BREP_SHAPE_REPRESENTATION('rhen335802FFwerd-None',(#51,#52),
#336);
#20=SHAPE_DEFINITION_REPRESENTATION(#21,#30);
#21=PRODUCT_DEFINITION_SHAPE('','',#22);
#22=PRODUCT_DEFINITION(' ','',#24,#23);
#23=PRODUCT_DEFINITION_CONTEXT('part definition',#29,'design');
#24=PRODUCT_DEFINITION_FORMATION_WITH_SPECIFIED_SOURCE(' ',' ',#26,
 .NOT_KNOWN.);
#25=PRODUCT_RELATED_PRODUCT_CATEGORY('part','',(#26));
#26=PRODUCT('rhen335802FFwerd','rhen335802FFwerd',' ',(#27));
#27=PRODUCT_CONTEXT(' ',#29,'mechanical');
#28=APPLICATION_PROTOCOL_DEFINITION('international standard',
'automotive_design',2010,#29);
#29=APPLICATION_CONTEXT(
'core data for automotive mechanical design processes');
#30=SHAPE_REPRESENTATION('rhen335802FFwerd-None',(#205),#336);
#31=TOROIDAL_SURFACE('',#231,1.4,0.1);
#32=TOROIDAL_SURFACE('',#232,2.25,1.);
#33=CONICAL_SURFACE('',#230,1.5,15.0000000000001);
#34=CONICAL_SURFACE('',#233,1.3,45.0000000000001);
#35=PRESENTATION_LAYER_ASSIGNMENT('1','Layer 1',(#51,#52));
#36=STYLED_ITEM('',(#38),#51);
#37=STYLED_ITEM('',(#39),#52);
#38=PRESENTATION_STYLE_ASSIGNMENT((#40));
#39=PRESENTATION_STYLE_ASSIGNMENT((#41));
#40=SURFACE_STYLE_USAGE(.BOTH.,#42);
#41=SURFACE_STYLE_USAGE(.BOTH.,#43);
#42=SURFACE_SIDE_STYLE('',(#44));
#43=SURFACE_SIDE_STYLE('',(#45));
#44=SURFACE_STYLE_FILL_AREA(#46);
#45=SURFACE_STYLE_FILL_AREA(#47);
#46=FILL_AREA_STYLE('',(#48));
#47=FILL_AREA_STYLE('',(#49));
#48=FILL_AREA_STYLE_COLOUR('',#50);
#49=FILL_AREA_STYLE_COLOUR('',#50);
#50=COLOUR_RGB('Lime',0.8,1.,0.2);
#51=MANIFOLD_SOLID_BREP('',#53);
#52=MANIFOLD_SOLID_BREP('',#54);
#53=CLOSED_SHELL('',(#60,#61,#62,#63));
#54=CLOSED_SHELL('',(#64,#65,#66,#67,#68,#69,#70,#71,#72,#73));
#55=CYLINDRICAL_SURFACE('',#210,4.);
#56=CYLINDRICAL_SURFACE('',#213,13.5);
#57=CYLINDRICAL_SURFACE('',#219,1.25);
#58=CYLINDRICAL_SURFACE('',#225,1.5);
#59=CYLINDRICAL_SURFACE('',#228,8.8);
#60=ADVANCED_FACE('',(#79,#80),#74,.F.);
#61=ADVANCED_FACE('',(#81,#82),#55,.F.);
#62=ADVANCED_FACE('',(#83,#84),#75,.F.);
#63=ADVANCED_FACE('',(#85,#86),#56,.T.);
#64=ADVANCED_FACE('',(#87,#88),#76,.F.);
#65=ADVANCED_FACE('',(#89,#90),#57,.F.);
#66=ADVANCED_FACE('',(#91,#92),#77,.F.);
#67=ADVANCED_FACE('',(#93,#94),#58,.T.);
#68=ADVANCED_FACE('',(#95,#96),#78,.F.);
#69=ADVANCED_FACE('',(#97,#98),#59,.T.);
#70=ADVANCED_FACE('',(#99,#100),#33,.T.);
#71=ADVANCED_FACE('',(#101,#102),#31,.T.);
#72=ADVANCED_FACE('',(#103,#104),#32,.T.);
#73=ADVANCED_FACE('',(#105,#106),#34,.F.);
#74=PLANE('',#208);
#75=PLANE('',#212);
#76=PLANE('',#216);
#77=PLANE('',#222);
#78=PLANE('',#227);
#79=FACE_BOUND('',#107,.T.);
#80=FACE_BOUND('',#108,.T.);
#81=FACE_BOUND('',#109,.T.);
#82=FACE_BOUND('',#110,.T.);
#83=FACE_BOUND('',#111,.T.);
#84=FACE_BOUND('',#112,.T.);
#85=FACE_BOUND('',#113,.T.);
#86=FACE_BOUND('',#114,.T.);
#87=FACE_BOUND('',#115,.T.);
#88=FACE_BOUND('',#116,.T.);
#89=FACE_BOUND('',#117,.T.);
#90=FACE_BOUND('',#118,.T.);
#91=FACE_BOUND('',#119,.T.);
#92=FACE_BOUND('',#120,.T.);
#93=FACE_BOUND('',#121,.T.);
#94=FACE_BOUND('',#122,.T.);
#95=FACE_BOUND('',#123,.T.);
#96=FACE_BOUND('',#124,.T.);
#97=FACE_BOUND('',#125,.T.);
#98=FACE_BOUND('',#126,.T.);
#99=FACE_BOUND('',#127,.T.);
#100=FACE_BOUND('',#128,.T.);
#101=FACE_BOUND('',#129,.T.);
#102=FACE_BOUND('',#130,.T.);
#103=FACE_BOUND('',#131,.T.);
#104=FACE_BOUND('',#132,.T.);
#105=FACE_BOUND('',#133,.T.);
#106=FACE_BOUND('',#134,.T.);
#107=EDGE_LOOP('',(#135));
#108=EDGE_LOOP('',(#136));
#109=EDGE_LOOP('',(#137));
#110=EDGE_LOOP('',(#138));
#111=EDGE_LOOP('',(#139));
#112=EDGE_LOOP('',(#140));
#113=EDGE_LOOP('',(#141));
#114=EDGE_LOOP('',(#142));
#115=EDGE_LOOP('',(#143));
#116=EDGE_LOOP('',(#144));
#117=EDGE_LOOP('',(#145));
#118=EDGE_LOOP('',(#146));
#119=EDGE_LOOP('',(#147));
#120=EDGE_LOOP('',(#148));
#121=EDGE_LOOP('',(#149));
#122=EDGE_LOOP('',(#150));
#123=EDGE_LOOP('',(#151));
#124=EDGE_LOOP('',(#152));
#125=EDGE_LOOP('',(#153));
#126=EDGE_LOOP('',(#154));
#127=EDGE_LOOP('',(#155));
#128=EDGE_LOOP('',(#156));
#129=EDGE_LOOP('',(#157));
#130=EDGE_LOOP('',(#158));
#131=EDGE_LOOP('',(#159));
#132=EDGE_LOOP('',(#160));
#133=EDGE_LOOP('',(#161));
#134=EDGE_LOOP('',(#162));
#135=ORIENTED_EDGE('',*,*,#177,.F.);
#136=ORIENTED_EDGE('',*,*,#178,.T.);
#137=ORIENTED_EDGE('',*,*,#179,.F.);
#138=ORIENTED_EDGE('',*,*,#177,.T.);
#139=ORIENTED_EDGE('',*,*,#180,.F.);
#140=ORIENTED_EDGE('',*,*,#179,.T.);
#141=ORIENTED_EDGE('',*,*,#178,.F.);
#142=ORIENTED_EDGE('',*,*,#180,.T.);
#143=ORIENTED_EDGE('',*,*,#181,.T.);
#144=ORIENTED_EDGE('',*,*,#182,.T.);
#145=ORIENTED_EDGE('',*,*,#183,.T.);
#146=ORIENTED_EDGE('',*,*,#184,.T.);
#147=ORIENTED_EDGE('',*,*,#185,.T.);
#148=ORIENTED_EDGE('',*,*,#186,.T.);
#149=ORIENTED_EDGE('',*,*,#187,.T.);
#150=ORIENTED_EDGE('',*,*,#188,.F.);
#151=ORIENTED_EDGE('',*,*,#189,.F.);
#152=ORIENTED_EDGE('',*,*,#188,.T.);
#153=ORIENTED_EDGE('',*,*,#182,.F.);
#154=ORIENTED_EDGE('',*,*,#189,.T.);
#155=ORIENTED_EDGE('',*,*,#190,.T.);
#156=ORIENTED_EDGE('',*,*,#186,.F.);
#157=ORIENTED_EDGE('',*,*,#190,.F.);
#158=ORIENTED_EDGE('',*,*,#187,.F.);
#159=ORIENTED_EDGE('',*,*,#181,.F.);
#160=ORIENTED_EDGE('',*,*,#184,.F.);
#161=ORIENTED_EDGE('',*,*,#183,.F.);
#162=ORIENTED_EDGE('',*,*,#185,.F.);
#163=VERTEX_POINT('',#294);
#164=VERTEX_POINT('',#296);
#165=VERTEX_POINT('',#299);
#166=VERTEX_POINT('',#302);
#167=VERTEX_POINT('',#306);
#168=VERTEX_POINT('',#308);
#169=VERTEX_POINT('',#311);
#170=VERTEX_POINT('',#313);
#171=VERTEX_POINT('',#316);
#172=VERTEX_POINT('',#318);
#173=VERTEX_POINT('',#321);
#174=VERTEX_POINT('',#323);
#175=VERTEX_POINT('',#326);
#176=VERTEX_POINT('',#330);
#177=EDGE_CURVE('',#163,#163,#191,.T.);
#178=EDGE_CURVE('',#164,#164,#192,.T.);
#179=EDGE_CURVE('',#165,#165,#193,.T.);
#180=EDGE_CURVE('',#166,#166,#194,.T.);
#181=EDGE_CURVE('',#167,#167,#195,.T.);
#182=EDGE_CURVE('',#168,#168,#196,.T.);
#183=EDGE_CURVE('',#169,#169,#197,.T.);
#184=EDGE_CURVE('',#170,#170,#198,.T.);
#185=EDGE_CURVE('',#171,#171,#199,.T.);
#186=EDGE_CURVE('',#172,#172,#200,.T.);
#187=EDGE_CURVE('',#173,#173,#201,.T.);
#188=EDGE_CURVE('',#174,#174,#202,.T.);
#189=EDGE_CURVE('',#175,#175,#203,.T.);
#190=EDGE_CURVE('',#176,#176,#204,.T.);
#191=CIRCLE('',#206,4.);
#192=CIRCLE('',#207,13.5);
#193=CIRCLE('',#209,4.);
#194=CIRCLE('',#211,13.5);
#195=CIRCLE('',#214,2.25);
#196=CIRCLE('',#215,8.8);
#197=CIRCLE('',#217,1.25);
#198=CIRCLE('',#218,1.25);
#199=CIRCLE('',#220,1.3);
#200=CIRCLE('',#221,1.35);
#201=CIRCLE('',#223,1.5);
#202=CIRCLE('',#224,1.5);
#203=CIRCLE('',#226,8.8);
#204=CIRCLE('',#229,1.49659258262891);
#205=AXIS2_PLACEMENT_3D('',#292,#234,#235);
#206=AXIS2_PLACEMENT_3D('',#293,#236,#237);
#207=AXIS2_PLACEMENT_3D('',#295,#238,#239);
#208=AXIS2_PLACEMENT_3D('',#297,#240,#241);
#209=AXIS2_PLACEMENT_3D('',#298,#242,#243);
#210=AXIS2_PLACEMENT_3D('',#300,#244,#245);
#211=AXIS2_PLACEMENT_3D('',#301,#246,#247);
#212=AXIS2_PLACEMENT_3D('',#303,#248,#249);
#213=AXIS2_PLACEMENT_3D('',#304,#250,#251);
#214=AXIS2_PLACEMENT_3D('',#305,#252,#253);
#215=AXIS2_PLACEMENT_3D('',#307,#254,#255);
#216=AXIS2_PLACEMENT_3D('',#309,#256,#257);
#217=AXIS2_PLACEMENT_3D('',#310,#258,#259);
#218=AXIS2_PLACEMENT_3D('',#312,#260,#261);
#219=AXIS2_PLACEMENT_3D('',#314,#262,#263);
#220=AXIS2_PLACEMENT_3D('',#315,#264,#265);
#221=AXIS2_PLACEMENT_3D('',#317,#266,#267);
#222=AXIS2_PLACEMENT_3D('',#319,#268,#269);
#223=AXIS2_PLACEMENT_3D('',#320,#270,#271);
#224=AXIS2_PLACEMENT_3D('',#322,#272,#273);
#225=AXIS2_PLACEMENT_3D('',#324,#274,#275);
#226=AXIS2_PLACEMENT_3D('',#325,#276,#277);
#227=AXIS2_PLACEMENT_3D('',#327,#278,#279);
#228=AXIS2_PLACEMENT_3D('',#328,#280,#281);
#229=AXIS2_PLACEMENT_3D('',#329,#282,#283);
#230=AXIS2_PLACEMENT_3D('',#331,#284,#285);
#231=AXIS2_PLACEMENT_3D('',#332,#286,#287);
#232=AXIS2_PLACEMENT_3D('',#333,#288,#289);
#233=AXIS2_PLACEMENT_3D('',#334,#290,#291);
#234=DIRECTION('',(0.,0.,1.));
#235=DIRECTION('',(1.,0.,0.));
#236=DIRECTION('',(-1.,0.,0.));
#237=DIRECTION('',(0.,0.,1.));
#238=DIRECTION('',(-1.,0.,0.));
#239=DIRECTION('',(0.,0.,1.));
#240=DIRECTION('',(1.,0.,0.));
#241=DIRECTION('',(0.,0.,-1.));
#242=DIRECTION('',(-1.,0.,0.));
#243=DIRECTION('',(0.,0.,1.));
#244=DIRECTION('',(-1.,0.,0.));
#245=DIRECTION('',(0.,0.,1.));
#246=DIRECTION('',(-1.,0.,0.));
#247=DIRECTION('',(0.,0.,1.));
#248=DIRECTION('',(-1.,0.,0.));
#249=DIRECTION('',(0.,0.,1.));
#250=DIRECTION('',(-1.,0.,0.));
#251=DIRECTION('',(0.,0.,1.));
#252=DIRECTION('',(1.,0.,0.));
#253=DIRECTION('',(0.,0.,-1.));
#254=DIRECTION('',(-1.,0.,0.));
#255=DIRECTION('',(0.,0.,1.));
#256=DIRECTION('',(1.,0.,0.));
#257=DIRECTION('',(0.,0.,-1.));
#258=DIRECTION('',(1.,0.,0.));
#259=DIRECTION('',(0.,0.,1.));
#260=DIRECTION('',(-1.,0.,0.));
#261=DIRECTION('',(0.,0.,-1.));
#262=DIRECTION('',(-1.,0.,0.));
#263=DIRECTION('',(0.,0.,1.));
#264=DIRECTION('',(-1.,0.,0.));
#265=DIRECTION('',(0.,0.,1.));
#266=DIRECTION('',(1.,0.,0.));
#267=DIRECTION('',(0.,0.,1.));
#268=DIRECTION('',(-1.,0.,0.));
#269=DIRECTION('',(0.,0.,1.));
#270=DIRECTION('',(-1.,0.,0.));
#271=DIRECTION('',(0.,0.,-1.));
#272=DIRECTION('',(-1.,0.,0.));
#273=DIRECTION('',(0.,0.,1.));
#274=DIRECTION('',(-1.,0.,0.));
#275=DIRECTION('',(0.,0.,1.));
#276=DIRECTION('',(-1.,0.,0.));
#277=DIRECTION('',(0.,0.,1.));
#278=DIRECTION('',(-1.,0.,0.));
#279=DIRECTION('',(0.,0.,1.));
#280=DIRECTION('',(-1.,0.,0.));
#281=DIRECTION('',(0.,0.,1.));
#282=DIRECTION('',(1.,0.,0.));
#283=DIRECTION('',(0.,0.,1.));
#284=DIRECTION('',(-1.,0.,0.));
#285=DIRECTION('',(1.93141066075405E-17,0.,1.));
#286=DIRECTION('',(1.,0.,0.));
#287=DIRECTION('',(0.,0.,-1.));
#288=DIRECTION('',(1.,0.,0.));
#289=DIRECTION('',(0.,0.,-1.));
#290=DIRECTION('',(1.,0.,0.));
#291=DIRECTION('',(6.41014367433752E-17,0.,-1.));
#292=CARTESIAN_POINT('',(0.,0.,0.));
#293=CARTESIAN_POINT('',(0.,0.,0.));
#294=CARTESIAN_POINT('',(0.,0.,4.));
#295=CARTESIAN_POINT('',(0.,0.,0.));
#296=CARTESIAN_POINT('',(0.,0.,13.5));
#297=CARTESIAN_POINT('',(0.,0.,13.5));
#298=CARTESIAN_POINT('',(10.,0.,0.));
#299=CARTESIAN_POINT('',(10.,0.,4.));
#300=CARTESIAN_POINT('',(0.,0.,0.));
#301=CARTESIAN_POINT('',(10.,0.,0.));
#302=CARTESIAN_POINT('',(10.,0.,13.5));
#303=CARTESIAN_POINT('',(10.,0.,4.));
#304=CARTESIAN_POINT('',(0.,0.,0.));
#305=CARTESIAN_POINT('',(6.50521303491303E-16,0.,0.));
#306=CARTESIAN_POINT('',(6.50521303491303E-16,0.,-2.25));
#307=CARTESIAN_POINT('',(-4.86797102661073E-16,0.,0.));
#308=CARTESIAN_POINT('',(-4.86797102661073E-16,0.,8.8));
#309=CARTESIAN_POINT('',(7.55802170832105E-16,0.,8.8));
#310=CARTESIAN_POINT('',(11.45,0.,0.));
#311=CARTESIAN_POINT('',(11.45,0.,1.25));
#312=CARTESIAN_POINT('',(1.,0.,0.));
#313=CARTESIAN_POINT('',(1.,0.,-1.25));
#314=CARTESIAN_POINT('',(0.,0.,0.));
#315=CARTESIAN_POINT('',(11.5,0.,0.));
#316=CARTESIAN_POINT('',(11.5,0.,1.3));
#317=CARTESIAN_POINT('',(11.5,0.,0.));
#318=CARTESIAN_POINT('',(11.5,0.,1.35));
#319=CARTESIAN_POINT('',(11.5,0.,1.25));
#320=CARTESIAN_POINT('',(10.9270271291059,0.,0.));
#321=CARTESIAN_POINT('',(10.9270271291059,0.,-1.5));
#322=CARTESIAN_POINT('',(0.999999999999999,0.,0.));
#323=CARTESIAN_POINT('',(0.999999999999999,0.,1.5));
#324=CARTESIAN_POINT('',(0.,0.,0.));
#325=CARTESIAN_POINT('',(1.,0.,0.));
#326=CARTESIAN_POINT('',(1.,0.,8.8));
#327=CARTESIAN_POINT('',(0.999999999999999,0.,1.5));
#328=CARTESIAN_POINT('',(0.,0.,0.));
#329=CARTESIAN_POINT('',(10.9529090336162,0.,0.));
#330=CARTESIAN_POINT('',(10.9529090336162,0.,1.49659258262891));
#331=CARTESIAN_POINT('',(10.9401923788647,0.,0.));
#332=CARTESIAN_POINT('',(10.9270271291059,0.,0.));
#333=CARTESIAN_POINT('',(1.,0.,0.));
#334=CARTESIAN_POINT('',(11.5,0.,0.));
#335=MECHANICAL_DESIGN_GEOMETRIC_PRESENTATION_REPRESENTATION('',(#36,#37),
#336);
#336=(
GEOMETRIC_REPRESENTATION_CONTEXT(3)
GLOBAL_UNCERTAINTY_ASSIGNED_CONTEXT((#337))
GLOBAL_UNIT_ASSIGNED_CONTEXT((#343,#339,#338))
REPRESENTATION_CONTEXT('08_1200_XXX_XXX_001','TOP_LEVEL_ASSEMBLY_PART')
);
#337=UNCERTAINTY_MEASURE_WITH_UNIT(LENGTH_MEASURE(2.E-5),#343,
'DISTANCE_ACCURACY_VALUE','Maximum Tolerance applied to model');
#338=(
NAMED_UNIT(*)
SI_UNIT($,.STERADIAN.)
SOLID_ANGLE_UNIT()
);
#339=(
CONVERSION_BASED_UNIT('DEGREE',#341)
NAMED_UNIT(#340)
PLANE_ANGLE_UNIT()
);
#340=DIMENSIONAL_EXPONENTS(0.,0.,0.,0.,0.,0.,0.);
#341=PLANE_ANGLE_MEASURE_WITH_UNIT(PLANE_ANGLE_MEASURE(0.0174532925),#342);
#342=(
NAMED_UNIT(*)
PLANE_ANGLE_UNIT()
SI_UNIT($,.RADIAN.)
);
#343=(
LENGTH_UNIT()
NAMED_UNIT(*)
SI_UNIT(.MILLI.,.METRE.)
);
ENDSEC;
END-ISO-10303-21;
