ISO-10303-21;
HEADER;
/* Generated by software containing ST-Developer
 * from STEP Tools, Inc. (www.steptools.com) 
 */
/* OPTION: using custom schema-name function */

FILE_DESCRIPTION(
/* description */ (''),
/* implementation_level */ '2;1');

FILE_NAME(
/* name */ '04-0106-001.stp',
/* time_stamp */ '2016-07-26T06:41:05+02:00',
/* author */ (''),
/* organization */ ('Franz Binder GmbH & Co.'),
/* preprocessor_version */ 'ST-DEVELOPER v14',
/* originating_system */ 'SIEMENS PLM Software NX 8.0',
/* authorisation */ '');

FILE_SCHEMA (('AUTOMOTIVE_DESIGN { 1 0 10303 214 3 1 1 1 }'));
ENDSEC;

DATA;
#10=PROPERTY_DEFINITION_REPRESENTATION(#14,#12);
#11=PROPERTY_DEFINITION_REPRESENTATION(#15,#13);
#12=REPRESENTATION('',(#16),#609);
#13=REPRESENTATION('',(#17),#609);
#14=PROPERTY_DEFINITION('pmi validation property','',#21);
#15=PROPERTY_DEFINITION('pmi validation property','',#21);
#16=VALUE_REPRESENTATION_ITEM('number of annotations',COUNT_MEASURE(0.));
#17=VALUE_REPRESENTATION_ITEM('number of views',COUNT_MEASURE(0.));
#18=SHAPE_REPRESENTATION_RELATIONSHIP('None',
'relationship between sgro14C43C10wmc3-None and sgro14C43C10wmc3-None',#30,
#19);
#19=ADVANCED_BREP_SHAPE_REPRESENTATION('sgro14C43C10wmc3-None',(#40),#609);
#20=SHAPE_DEFINITION_REPRESENTATION(#21,#30);
#21=PRODUCT_DEFINITION_SHAPE('','',#22);
#22=PRODUCT_DEFINITION(' ','',#24,#23);
#23=PRODUCT_DEFINITION_CONTEXT('part definition',#29,'design');
#24=PRODUCT_DEFINITION_FORMATION_WITH_SPECIFIED_SOURCE(' ',' ',#26,
 .NOT_KNOWN.);
#25=PRODUCT_RELATED_PRODUCT_CATEGORY('part','',(#26));
#26=PRODUCT('sgro14C43C10wmc3','sgro14C43C10wmc3',' ',(#27));
#27=PRODUCT_CONTEXT(' ',#29,'mechanical');
#28=APPLICATION_PROTOCOL_DEFINITION('international standard',
'automotive_design',2010,#29);
#29=APPLICATION_CONTEXT(
'core data for automotive mechanical design processes');
#30=SHAPE_REPRESENTATION('sgro14C43C10wmc3-None',(#376),#609);
#31=PRESENTATION_LAYER_ASSIGNMENT('1','Layer 1',(#40));
#32=STYLED_ITEM('',(#33),#40);
#33=PRESENTATION_STYLE_ASSIGNMENT((#34));
#34=SURFACE_STYLE_USAGE(.BOTH.,#35);
#35=SURFACE_SIDE_STYLE('',(#36));
#36=SURFACE_STYLE_FILL_AREA(#37);
#37=FILL_AREA_STYLE('',(#38));
#38=FILL_AREA_STYLE_COLOUR('',#39);
#39=COLOUR_RGB('White',0.815686274509804,0.815686274509804,0.815686274509804);
#40=MANIFOLD_SOLID_BREP('',#41);
#41=CLOSED_SHELL('',(#63,#64,#65,#66,#67,#68,#69,#70,#71,#72,#73,#74,#75,
#76,#77,#78,#79,#80));
#42=CYLINDRICAL_SURFACE('',#397,9.05);
#43=CYLINDRICAL_SURFACE('',#402,1.6);
#44=CYLINDRICAL_SURFACE('',#403,1.6);
#45=CYLINDRICAL_SURFACE('',#404,1.6);
#46=CYLINDRICAL_SURFACE('',#405,1.6);
#47=CYLINDRICAL_SURFACE('',#406,3.);
#48=CYLINDRICAL_SURFACE('',#407,3.);
#49=CYLINDRICAL_SURFACE('',#408,3.);
#50=CYLINDRICAL_SURFACE('',#409,3.);
#51=FACE_OUTER_BOUND('',#122,.T.);
#52=FACE_OUTER_BOUND('',#123,.T.);
#53=FACE_OUTER_BOUND('',#124,.T.);
#54=FACE_OUTER_BOUND('',#125,.T.);
#55=FACE_OUTER_BOUND('',#126,.T.);
#56=FACE_OUTER_BOUND('',#135,.T.);
#57=FACE_OUTER_BOUND('',#136,.T.);
#58=FACE_OUTER_BOUND('',#137,.T.);
#59=FACE_OUTER_BOUND('',#138,.T.);
#60=FACE_OUTER_BOUND('',#139,.T.);
#61=FACE_OUTER_BOUND('',#140,.T.);
#62=FACE_OUTER_BOUND('',#141,.T.);
#63=ADVANCED_FACE('',(#90,#91,#92,#93,#94,#95),#81,.T.);
#64=ADVANCED_FACE('',(#96,#97,#98,#99,#100,#101),#82,.F.);
#65=ADVANCED_FACE('',(#51),#42,.F.);
#66=ADVANCED_FACE('',(#52),#83,.F.);
#67=ADVANCED_FACE('',(#53),#84,.F.);
#68=ADVANCED_FACE('',(#54),#85,.F.);
#69=ADVANCED_FACE('',(#55),#86,.F.);
#70=ADVANCED_FACE('',(#102,#103),#43,.F.);
#71=ADVANCED_FACE('',(#104,#105),#44,.F.);
#72=ADVANCED_FACE('',(#106,#107),#45,.F.);
#73=ADVANCED_FACE('',(#108,#109),#46,.F.);
#74=ADVANCED_FACE('',(#56),#47,.T.);
#75=ADVANCED_FACE('',(#57),#48,.T.);
#76=ADVANCED_FACE('',(#58),#49,.T.);
#77=ADVANCED_FACE('',(#59),#50,.T.);
#78=ADVANCED_FACE('',(#60),#87,.T.);
#79=ADVANCED_FACE('',(#61),#88,.T.);
#80=ADVANCED_FACE('',(#62),#89,.T.);
#81=PLANE('',#386);
#82=PLANE('',#396);
#83=PLANE('',#398);
#84=PLANE('',#399);
#85=PLANE('',#400);
#86=PLANE('',#401);
#87=PLANE('',#410);
#88=PLANE('',#411);
#89=PLANE('',#412);
#90=FACE_BOUND('',#110,.T.);
#91=FACE_BOUND('',#111,.T.);
#92=FACE_BOUND('',#112,.T.);
#93=FACE_BOUND('',#113,.T.);
#94=FACE_BOUND('',#114,.T.);
#95=FACE_BOUND('',#115,.T.);
#96=FACE_BOUND('',#116,.T.);
#97=FACE_BOUND('',#117,.T.);
#98=FACE_BOUND('',#118,.T.);
#99=FACE_BOUND('',#119,.T.);
#100=FACE_BOUND('',#120,.T.);
#101=FACE_BOUND('',#121,.T.);
#102=FACE_BOUND('',#127,.T.);
#103=FACE_BOUND('',#128,.T.);
#104=FACE_BOUND('',#129,.T.);
#105=FACE_BOUND('',#130,.T.);
#106=FACE_BOUND('',#131,.T.);
#107=FACE_BOUND('',#132,.T.);
#108=FACE_BOUND('',#133,.T.);
#109=FACE_BOUND('',#134,.T.);
#110=EDGE_LOOP('',(#160,#161,#162,#163,#164,#165,#166,#167));
#111=EDGE_LOOP('',(#168));
#112=EDGE_LOOP('',(#169));
#113=EDGE_LOOP('',(#170));
#114=EDGE_LOOP('',(#171));
#115=EDGE_LOOP('',(#172,#173,#174,#175));
#116=EDGE_LOOP('',(#176,#177,#178,#179,#180,#181,#182,#183));
#117=EDGE_LOOP('',(#184));
#118=EDGE_LOOP('',(#185));
#119=EDGE_LOOP('',(#186));
#120=EDGE_LOOP('',(#187));
#121=EDGE_LOOP('',(#188,#189,#190,#191));
#122=EDGE_LOOP('',(#192,#193,#194,#195));
#123=EDGE_LOOP('',(#196,#197,#198,#199));
#124=EDGE_LOOP('',(#200,#201,#202,#203));
#125=EDGE_LOOP('',(#204,#205,#206,#207));
#126=EDGE_LOOP('',(#208,#209,#210,#211));
#127=EDGE_LOOP('',(#212));
#128=EDGE_LOOP('',(#213));
#129=EDGE_LOOP('',(#214));
#130=EDGE_LOOP('',(#215));
#131=EDGE_LOOP('',(#216));
#132=EDGE_LOOP('',(#217));
#133=EDGE_LOOP('',(#218));
#134=EDGE_LOOP('',(#219));
#135=EDGE_LOOP('',(#220,#221,#222,#223));
#136=EDGE_LOOP('',(#224,#225,#226,#227));
#137=EDGE_LOOP('',(#228,#229,#230,#231));
#138=EDGE_LOOP('',(#232,#233,#234,#235));
#139=EDGE_LOOP('',(#236,#237,#238,#239));
#140=EDGE_LOOP('',(#240,#241,#242,#243));
#141=EDGE_LOOP('',(#244,#245,#246,#247));
#142=CIRCLE('',#377,3.);
#143=CIRCLE('',#378,3.);
#144=CIRCLE('',#379,3.);
#145=CIRCLE('',#380,3.);
#146=CIRCLE('',#381,1.6);
#147=CIRCLE('',#382,1.6);
#148=CIRCLE('',#383,1.6);
#149=CIRCLE('',#384,1.6);
#150=CIRCLE('',#385,9.05);
#151=CIRCLE('',#387,3.);
#152=CIRCLE('',#388,3.);
#153=CIRCLE('',#389,3.);
#154=CIRCLE('',#390,3.);
#155=CIRCLE('',#391,1.6);
#156=CIRCLE('',#392,1.6);
#157=CIRCLE('',#393,1.6);
#158=CIRCLE('',#394,1.6);
#159=CIRCLE('',#395,9.05);
#160=ORIENTED_EDGE('',*,*,#280,.T.);
#161=ORIENTED_EDGE('',*,*,#281,.T.);
#162=ORIENTED_EDGE('',*,*,#282,.T.);
#163=ORIENTED_EDGE('',*,*,#283,.T.);
#164=ORIENTED_EDGE('',*,*,#284,.T.);
#165=ORIENTED_EDGE('',*,*,#285,.T.);
#166=ORIENTED_EDGE('',*,*,#286,.T.);
#167=ORIENTED_EDGE('',*,*,#287,.T.);
#168=ORIENTED_EDGE('',*,*,#288,.T.);
#169=ORIENTED_EDGE('',*,*,#289,.T.);
#170=ORIENTED_EDGE('',*,*,#290,.T.);
#171=ORIENTED_EDGE('',*,*,#291,.T.);
#172=ORIENTED_EDGE('',*,*,#292,.T.);
#173=ORIENTED_EDGE('',*,*,#293,.T.);
#174=ORIENTED_EDGE('',*,*,#294,.T.);
#175=ORIENTED_EDGE('',*,*,#295,.T.);
#176=ORIENTED_EDGE('',*,*,#296,.F.);
#177=ORIENTED_EDGE('',*,*,#297,.T.);
#178=ORIENTED_EDGE('',*,*,#298,.F.);
#179=ORIENTED_EDGE('',*,*,#299,.T.);
#180=ORIENTED_EDGE('',*,*,#300,.F.);
#181=ORIENTED_EDGE('',*,*,#301,.T.);
#182=ORIENTED_EDGE('',*,*,#302,.F.);
#183=ORIENTED_EDGE('',*,*,#303,.T.);
#184=ORIENTED_EDGE('',*,*,#304,.F.);
#185=ORIENTED_EDGE('',*,*,#305,.F.);
#186=ORIENTED_EDGE('',*,*,#306,.F.);
#187=ORIENTED_EDGE('',*,*,#307,.F.);
#188=ORIENTED_EDGE('',*,*,#308,.F.);
#189=ORIENTED_EDGE('',*,*,#309,.F.);
#190=ORIENTED_EDGE('',*,*,#310,.F.);
#191=ORIENTED_EDGE('',*,*,#311,.F.);
#192=ORIENTED_EDGE('',*,*,#312,.F.);
#193=ORIENTED_EDGE('',*,*,#294,.F.);
#194=ORIENTED_EDGE('',*,*,#313,.F.);
#195=ORIENTED_EDGE('',*,*,#309,.T.);
#196=ORIENTED_EDGE('',*,*,#284,.F.);
#197=ORIENTED_EDGE('',*,*,#314,.T.);
#198=ORIENTED_EDGE('',*,*,#302,.T.);
#199=ORIENTED_EDGE('',*,*,#315,.T.);
#200=ORIENTED_EDGE('',*,*,#286,.F.);
#201=ORIENTED_EDGE('',*,*,#316,.T.);
#202=ORIENTED_EDGE('',*,*,#300,.T.);
#203=ORIENTED_EDGE('',*,*,#317,.T.);
#204=ORIENTED_EDGE('',*,*,#298,.T.);
#205=ORIENTED_EDGE('',*,*,#318,.T.);
#206=ORIENTED_EDGE('',*,*,#280,.F.);
#207=ORIENTED_EDGE('',*,*,#319,.T.);
#208=ORIENTED_EDGE('',*,*,#282,.F.);
#209=ORIENTED_EDGE('',*,*,#320,.T.);
#210=ORIENTED_EDGE('',*,*,#296,.T.);
#211=ORIENTED_EDGE('',*,*,#321,.T.);
#212=ORIENTED_EDGE('',*,*,#304,.T.);
#213=ORIENTED_EDGE('',*,*,#288,.F.);
#214=ORIENTED_EDGE('',*,*,#305,.T.);
#215=ORIENTED_EDGE('',*,*,#289,.F.);
#216=ORIENTED_EDGE('',*,*,#306,.T.);
#217=ORIENTED_EDGE('',*,*,#290,.F.);
#218=ORIENTED_EDGE('',*,*,#307,.T.);
#219=ORIENTED_EDGE('',*,*,#291,.F.);
#220=ORIENTED_EDGE('',*,*,#281,.F.);
#221=ORIENTED_EDGE('',*,*,#318,.F.);
#222=ORIENTED_EDGE('',*,*,#297,.F.);
#223=ORIENTED_EDGE('',*,*,#320,.F.);
#224=ORIENTED_EDGE('',*,*,#283,.F.);
#225=ORIENTED_EDGE('',*,*,#321,.F.);
#226=ORIENTED_EDGE('',*,*,#303,.F.);
#227=ORIENTED_EDGE('',*,*,#314,.F.);
#228=ORIENTED_EDGE('',*,*,#285,.F.);
#229=ORIENTED_EDGE('',*,*,#315,.F.);
#230=ORIENTED_EDGE('',*,*,#301,.F.);
#231=ORIENTED_EDGE('',*,*,#316,.F.);
#232=ORIENTED_EDGE('',*,*,#287,.F.);
#233=ORIENTED_EDGE('',*,*,#317,.F.);
#234=ORIENTED_EDGE('',*,*,#299,.F.);
#235=ORIENTED_EDGE('',*,*,#319,.F.);
#236=ORIENTED_EDGE('',*,*,#312,.T.);
#237=ORIENTED_EDGE('',*,*,#308,.T.);
#238=ORIENTED_EDGE('',*,*,#322,.F.);
#239=ORIENTED_EDGE('',*,*,#295,.F.);
#240=ORIENTED_EDGE('',*,*,#313,.T.);
#241=ORIENTED_EDGE('',*,*,#293,.F.);
#242=ORIENTED_EDGE('',*,*,#323,.T.);
#243=ORIENTED_EDGE('',*,*,#310,.T.);
#244=ORIENTED_EDGE('',*,*,#292,.F.);
#245=ORIENTED_EDGE('',*,*,#322,.T.);
#246=ORIENTED_EDGE('',*,*,#311,.T.);
#247=ORIENTED_EDGE('',*,*,#323,.F.);
#248=VERTEX_POINT('',#515);
#249=VERTEX_POINT('',#516);
#250=VERTEX_POINT('',#518);
#251=VERTEX_POINT('',#520);
#252=VERTEX_POINT('',#522);
#253=VERTEX_POINT('',#524);
#254=VERTEX_POINT('',#526);
#255=VERTEX_POINT('',#528);
#256=VERTEX_POINT('',#531);
#257=VERTEX_POINT('',#533);
#258=VERTEX_POINT('',#535);
#259=VERTEX_POINT('',#537);
#260=VERTEX_POINT('',#539);
#261=VERTEX_POINT('',#540);
#262=VERTEX_POINT('',#542);
#263=VERTEX_POINT('',#544);
#264=VERTEX_POINT('',#548);
#265=VERTEX_POINT('',#549);
#266=VERTEX_POINT('',#551);
#267=VERTEX_POINT('',#553);
#268=VERTEX_POINT('',#555);
#269=VERTEX_POINT('',#557);
#270=VERTEX_POINT('',#559);
#271=VERTEX_POINT('',#561);
#272=VERTEX_POINT('',#564);
#273=VERTEX_POINT('',#566);
#274=VERTEX_POINT('',#568);
#275=VERTEX_POINT('',#570);
#276=VERTEX_POINT('',#572);
#277=VERTEX_POINT('',#573);
#278=VERTEX_POINT('',#575);
#279=VERTEX_POINT('',#577);
#280=EDGE_CURVE('',#248,#249,#324,.T.);
#281=EDGE_CURVE('',#249,#250,#142,.T.);
#282=EDGE_CURVE('',#250,#251,#325,.T.);
#283=EDGE_CURVE('',#251,#252,#143,.T.);
#284=EDGE_CURVE('',#252,#253,#326,.T.);
#285=EDGE_CURVE('',#253,#254,#144,.T.);
#286=EDGE_CURVE('',#254,#255,#327,.T.);
#287=EDGE_CURVE('',#255,#248,#145,.T.);
#288=EDGE_CURVE('',#256,#256,#146,.T.);
#289=EDGE_CURVE('',#257,#257,#147,.T.);
#290=EDGE_CURVE('',#258,#258,#148,.T.);
#291=EDGE_CURVE('',#259,#259,#149,.T.);
#292=EDGE_CURVE('',#260,#261,#328,.T.);
#293=EDGE_CURVE('',#261,#262,#329,.T.);
#294=EDGE_CURVE('',#262,#263,#150,.T.);
#295=EDGE_CURVE('',#263,#260,#330,.T.);
#296=EDGE_CURVE('',#264,#265,#331,.T.);
#297=EDGE_CURVE('',#264,#266,#151,.T.);
#298=EDGE_CURVE('',#267,#266,#332,.T.);
#299=EDGE_CURVE('',#267,#268,#152,.T.);
#300=EDGE_CURVE('',#269,#268,#333,.T.);
#301=EDGE_CURVE('',#269,#270,#153,.T.);
#302=EDGE_CURVE('',#271,#270,#334,.T.);
#303=EDGE_CURVE('',#271,#265,#154,.T.);
#304=EDGE_CURVE('',#272,#272,#155,.T.);
#305=EDGE_CURVE('',#273,#273,#156,.T.);
#306=EDGE_CURVE('',#274,#274,#157,.T.);
#307=EDGE_CURVE('',#275,#275,#158,.T.);
#308=EDGE_CURVE('',#276,#277,#335,.T.);
#309=EDGE_CURVE('',#278,#276,#159,.T.);
#310=EDGE_CURVE('',#279,#278,#336,.T.);
#311=EDGE_CURVE('',#277,#279,#337,.T.);
#312=EDGE_CURVE('',#263,#276,#338,.T.);
#313=EDGE_CURVE('',#278,#262,#339,.T.);
#314=EDGE_CURVE('',#252,#271,#340,.T.);
#315=EDGE_CURVE('',#270,#253,#341,.T.);
#316=EDGE_CURVE('',#254,#269,#342,.T.);
#317=EDGE_CURVE('',#268,#255,#343,.T.);
#318=EDGE_CURVE('',#266,#249,#344,.T.);
#319=EDGE_CURVE('',#248,#267,#345,.T.);
#320=EDGE_CURVE('',#250,#264,#346,.T.);
#321=EDGE_CURVE('',#265,#251,#347,.T.);
#322=EDGE_CURVE('',#260,#277,#348,.T.);
#323=EDGE_CURVE('',#261,#279,#349,.T.);
#324=LINE('',#514,#350);
#325=LINE('',#519,#351);
#326=LINE('',#523,#352);
#327=LINE('',#527,#353);
#328=LINE('',#538,#354);
#329=LINE('',#541,#355);
#330=LINE('',#545,#356);
#331=LINE('',#547,#357);
#332=LINE('',#552,#358);
#333=LINE('',#556,#359);
#334=LINE('',#560,#360);
#335=LINE('',#571,#361);
#336=LINE('',#576,#362);
#337=LINE('',#578,#363);
#338=LINE('',#580,#364);
#339=LINE('',#581,#365);
#340=LINE('',#583,#366);
#341=LINE('',#584,#367);
#342=LINE('',#586,#368);
#343=LINE('',#587,#369);
#344=LINE('',#589,#370);
#345=LINE('',#590,#371);
#346=LINE('',#592,#372);
#347=LINE('',#593,#373);
#348=LINE('',#603,#374);
#349=LINE('',#605,#375);
#350=VECTOR('',#415,1.);
#351=VECTOR('',#418,1.);
#352=VECTOR('',#421,1.);
#353=VECTOR('',#424,1.);
#354=VECTOR('',#435,1.);
#355=VECTOR('',#436,1.);
#356=VECTOR('',#439,1.);
#357=VECTOR('',#442,1.);
#358=VECTOR('',#445,1.);
#359=VECTOR('',#448,1.);
#360=VECTOR('',#451,1.);
#361=VECTOR('',#462,1.);
#362=VECTOR('',#465,1.);
#363=VECTOR('',#466,1.);
#364=VECTOR('',#469,1.);
#365=VECTOR('',#470,1.);
#366=VECTOR('',#473,1.);
#367=VECTOR('',#474,1.);
#368=VECTOR('',#477,1.);
#369=VECTOR('',#478,1.);
#370=VECTOR('',#481,1.);
#371=VECTOR('',#482,1.);
#372=VECTOR('',#485,1.);
#373=VECTOR('',#486,1.);
#374=VECTOR('',#505,1.);
#375=VECTOR('',#508,1.);
#376=AXIS2_PLACEMENT_3D('',#513,#413,#414);
#377=AXIS2_PLACEMENT_3D('',#517,#416,#417);
#378=AXIS2_PLACEMENT_3D('',#521,#419,#420);
#379=AXIS2_PLACEMENT_3D('',#525,#422,#423);
#380=AXIS2_PLACEMENT_3D('',#529,#425,#426);
#381=AXIS2_PLACEMENT_3D('',#530,#427,#428);
#382=AXIS2_PLACEMENT_3D('',#532,#429,#430);
#383=AXIS2_PLACEMENT_3D('',#534,#431,#432);
#384=AXIS2_PLACEMENT_3D('',#536,#433,#434);
#385=AXIS2_PLACEMENT_3D('',#543,#437,#438);
#386=AXIS2_PLACEMENT_3D('',#546,#440,#441);
#387=AXIS2_PLACEMENT_3D('',#550,#443,#444);
#388=AXIS2_PLACEMENT_3D('',#554,#446,#447);
#389=AXIS2_PLACEMENT_3D('',#558,#449,#450);
#390=AXIS2_PLACEMENT_3D('',#562,#452,#453);
#391=AXIS2_PLACEMENT_3D('',#563,#454,#455);
#392=AXIS2_PLACEMENT_3D('',#565,#456,#457);
#393=AXIS2_PLACEMENT_3D('',#567,#458,#459);
#394=AXIS2_PLACEMENT_3D('',#569,#460,#461);
#395=AXIS2_PLACEMENT_3D('',#574,#463,#464);
#396=AXIS2_PLACEMENT_3D('',#579,#467,#468);
#397=AXIS2_PLACEMENT_3D('',#582,#471,#472);
#398=AXIS2_PLACEMENT_3D('',#585,#475,#476);
#399=AXIS2_PLACEMENT_3D('',#588,#479,#480);
#400=AXIS2_PLACEMENT_3D('',#591,#483,#484);
#401=AXIS2_PLACEMENT_3D('',#594,#487,#488);
#402=AXIS2_PLACEMENT_3D('',#595,#489,#490);
#403=AXIS2_PLACEMENT_3D('',#596,#491,#492);
#404=AXIS2_PLACEMENT_3D('',#597,#493,#494);
#405=AXIS2_PLACEMENT_3D('',#598,#495,#496);
#406=AXIS2_PLACEMENT_3D('',#599,#497,#498);
#407=AXIS2_PLACEMENT_3D('',#600,#499,#500);
#408=AXIS2_PLACEMENT_3D('',#601,#501,#502);
#409=AXIS2_PLACEMENT_3D('',#602,#503,#504);
#410=AXIS2_PLACEMENT_3D('',#604,#506,#507);
#411=AXIS2_PLACEMENT_3D('',#606,#509,#510);
#412=AXIS2_PLACEMENT_3D('',#607,#511,#512);
#413=DIRECTION('',(0.,0.,1.));
#414=DIRECTION('',(1.,0.,0.));
#415=DIRECTION('',(-1.,0.,0.));
#416=DIRECTION('',(0.,0.,1.));
#417=DIRECTION('',(1.,0.,0.));
#418=DIRECTION('',(1.33440267382831E-016,-1.,0.));
#419=DIRECTION('',(0.,0.,1.));
#420=DIRECTION('',(1.,0.,0.));
#421=DIRECTION('',(1.,0.,0.));
#422=DIRECTION('',(0.,0.,1.));
#423=DIRECTION('',(1.,0.,0.));
#424=DIRECTION('',(-6.67201336914157E-017,1.,0.));
#425=DIRECTION('',(0.,0.,1.));
#426=DIRECTION('',(1.,0.,0.));
#427=DIRECTION('',(0.,0.,-1.));
#428=DIRECTION('',(-1.,0.,0.));
#429=DIRECTION('',(0.,0.,-1.));
#430=DIRECTION('',(-1.,0.,0.));
#431=DIRECTION('',(0.,0.,-1.));
#432=DIRECTION('',(-1.,0.,0.));
#433=DIRECTION('',(0.,0.,-1.));
#434=DIRECTION('',(-1.,0.,0.));
#435=DIRECTION('',(0.,-1.,0.));
#436=DIRECTION('',(-1.,-6.50521303491302E-016,0.));
#437=DIRECTION('',(0.,0.,-1.));
#438=DIRECTION('',(-1.,0.,0.));
#439=DIRECTION('',(1.,3.25260651745651E-016,0.));
#440=DIRECTION('',(0.,0.,1.));
#441=DIRECTION('',(1.,0.,0.));
#442=DIRECTION('',(1.33440267382831E-016,-1.,0.));
#443=DIRECTION('',(0.,0.,-1.));
#444=DIRECTION('',(1.,0.,0.));
#445=DIRECTION('',(-1.,0.,0.));
#446=DIRECTION('',(0.,0.,-1.));
#447=DIRECTION('',(1.,0.,0.));
#448=DIRECTION('',(-6.67201336914157E-017,1.,0.));
#449=DIRECTION('',(0.,0.,-1.));
#450=DIRECTION('',(1.,0.,0.));
#451=DIRECTION('',(1.,0.,0.));
#452=DIRECTION('',(0.,0.,-1.));
#453=DIRECTION('',(1.,0.,0.));
#454=DIRECTION('',(0.,0.,-1.));
#455=DIRECTION('',(-1.,0.,0.));
#456=DIRECTION('',(0.,0.,-1.));
#457=DIRECTION('',(-1.,0.,0.));
#458=DIRECTION('',(0.,0.,-1.));
#459=DIRECTION('',(-1.,0.,0.));
#460=DIRECTION('',(0.,0.,-1.));
#461=DIRECTION('',(-1.,0.,0.));
#462=DIRECTION('',(1.,3.25260651745651E-016,0.));
#463=DIRECTION('',(0.,0.,-1.));
#464=DIRECTION('',(-1.,0.,0.));
#465=DIRECTION('',(-1.,-6.50521303491302E-016,0.));
#466=DIRECTION('',(0.,-1.,0.));
#467=DIRECTION('',(0.,0.,1.));
#468=DIRECTION('',(1.,0.,0.));
#469=DIRECTION('',(0.,0.,-1.));
#470=DIRECTION('',(0.,0.,1.));
#471=DIRECTION('',(0.,0.,-1.));
#472=DIRECTION('',(-1.,0.,0.));
#473=DIRECTION('',(0.,0.,-1.));
#474=DIRECTION('',(0.,0.,1.));
#475=DIRECTION('',(0.,1.,0.));
#476=DIRECTION('',(0.,0.,1.));
#477=DIRECTION('',(0.,0.,-1.));
#478=DIRECTION('',(0.,0.,1.));
#479=DIRECTION('',(-1.,-6.67201336914157E-017,0.));
#480=DIRECTION('',(6.59194920871187E-017,-1.,0.));
#481=DIRECTION('',(0.,0.,1.));
#482=DIRECTION('',(0.,0.,-1.));
#483=DIRECTION('',(0.,-1.,0.));
#484=DIRECTION('',(0.,0.,-1.));
#485=DIRECTION('',(0.,0.,-1.));
#486=DIRECTION('',(0.,0.,1.));
#487=DIRECTION('',(1.,1.33440267382831E-016,0.));
#488=DIRECTION('',(-1.33573707650214E-016,1.,0.));
#489=DIRECTION('',(0.,0.,-1.));
#490=DIRECTION('',(-1.,0.,0.));
#491=DIRECTION('',(0.,0.,-1.));
#492=DIRECTION('',(-1.,0.,0.));
#493=DIRECTION('',(0.,0.,-1.));
#494=DIRECTION('',(-1.,0.,0.));
#495=DIRECTION('',(0.,0.,-1.));
#496=DIRECTION('',(-1.,0.,0.));
#497=DIRECTION('',(0.,0.,-1.));
#498=DIRECTION('',(-1.,0.,0.));
#499=DIRECTION('',(0.,0.,-1.));
#500=DIRECTION('',(-1.,0.,0.));
#501=DIRECTION('',(0.,0.,-1.));
#502=DIRECTION('',(-1.,0.,0.));
#503=DIRECTION('',(0.,0.,-1.));
#504=DIRECTION('',(-1.,0.,0.));
#505=DIRECTION('',(0.,0.,-1.));
#506=DIRECTION('',(3.25260651745651E-016,-1.,0.));
#507=DIRECTION('',(1.,3.25260651745651E-016,0.));
#508=DIRECTION('',(0.,0.,-1.));
#509=DIRECTION('',(-6.50521303491302E-016,1.,0.));
#510=DIRECTION('',(-1.,-6.50521303491303E-016,0.));
#511=DIRECTION('',(-1.,0.,0.));
#512=DIRECTION('',(0.,0.,1.));
#513=CARTESIAN_POINT('',(0.,0.,0.));
#514=CARTESIAN_POINT('',(13.,13.,1.));
#515=CARTESIAN_POINT('',(10.,13.,1.));
#516=CARTESIAN_POINT('',(-10.,13.,1.));
#517=CARTESIAN_POINT('',(-10.,10.,1.));
#518=CARTESIAN_POINT('',(-13.,10.,1.));
#519=CARTESIAN_POINT('',(-13.,13.,1.));
#520=CARTESIAN_POINT('',(-13.,-10.,1.));
#521=CARTESIAN_POINT('',(-10.,-10.,1.));
#522=CARTESIAN_POINT('',(-10.,-13.,1.));
#523=CARTESIAN_POINT('',(-13.,-13.,1.));
#524=CARTESIAN_POINT('',(10.,-13.,1.));
#525=CARTESIAN_POINT('',(10.,-10.,1.));
#526=CARTESIAN_POINT('',(13.,-10.,1.));
#527=CARTESIAN_POINT('',(13.,-13.,1.));
#528=CARTESIAN_POINT('',(13.,10.,1.));
#529=CARTESIAN_POINT('',(10.,10.,1.));
#530=CARTESIAN_POINT('',(10.,10.,1.));
#531=CARTESIAN_POINT('',(8.4,10.,1.));
#532=CARTESIAN_POINT('',(-9.99999999999999,10.,1.));
#533=CARTESIAN_POINT('',(-11.6,10.,1.));
#534=CARTESIAN_POINT('',(-10.,-9.99999999999998,1.));
#535=CARTESIAN_POINT('',(-11.6,-9.99999999999998,1.));
#536=CARTESIAN_POINT('',(10.,-10.,1.));
#537=CARTESIAN_POINT('',(8.4,-10.,1.));
#538=CARTESIAN_POINT('',(10.,1.4,1.));
#539=CARTESIAN_POINT('',(10.,1.4,1.));
#540=CARTESIAN_POINT('',(10.,-1.4,1.));
#541=CARTESIAN_POINT('',(10.,-1.4,1.));
#542=CARTESIAN_POINT('',(8.94105698449574,-1.4,1.));
#543=CARTESIAN_POINT('',(0.,0.,1.));
#544=CARTESIAN_POINT('',(8.94105698449574,1.4,1.));
#545=CARTESIAN_POINT('',(8.,1.4,1.));
#546=CARTESIAN_POINT('',(0.,0.,1.));
#547=CARTESIAN_POINT('',(-13.,13.,0.));
#548=CARTESIAN_POINT('',(-13.,10.,0.));
#549=CARTESIAN_POINT('',(-13.,-10.,0.));
#550=CARTESIAN_POINT('',(-10.,10.,0.));
#551=CARTESIAN_POINT('',(-10.,13.,0.));
#552=CARTESIAN_POINT('',(13.,13.,0.));
#553=CARTESIAN_POINT('',(10.,13.,0.));
#554=CARTESIAN_POINT('',(10.,10.,0.));
#555=CARTESIAN_POINT('',(13.,10.,0.));
#556=CARTESIAN_POINT('',(13.,-13.,0.));
#557=CARTESIAN_POINT('',(13.,-10.,0.));
#558=CARTESIAN_POINT('',(10.,-10.,0.));
#559=CARTESIAN_POINT('',(10.,-13.,0.));
#560=CARTESIAN_POINT('',(-13.,-13.,0.));
#561=CARTESIAN_POINT('',(-10.,-13.,0.));
#562=CARTESIAN_POINT('',(-10.,-10.,0.));
#563=CARTESIAN_POINT('',(10.,10.,0.));
#564=CARTESIAN_POINT('',(8.4,10.,0.));
#565=CARTESIAN_POINT('',(-9.99999999999999,10.,0.));
#566=CARTESIAN_POINT('',(-11.6,10.,0.));
#567=CARTESIAN_POINT('',(-10.,-9.99999999999998,0.));
#568=CARTESIAN_POINT('',(-11.6,-9.99999999999998,0.));
#569=CARTESIAN_POINT('',(10.,-10.,0.));
#570=CARTESIAN_POINT('',(8.4,-10.,0.));
#571=CARTESIAN_POINT('',(8.,1.4,0.));
#572=CARTESIAN_POINT('',(8.94105698449574,1.4,0.));
#573=CARTESIAN_POINT('',(10.,1.4,0.));
#574=CARTESIAN_POINT('',(0.,0.,0.));
#575=CARTESIAN_POINT('',(8.94105698449574,-1.4,0.));
#576=CARTESIAN_POINT('',(10.,-1.4,0.));
#577=CARTESIAN_POINT('',(10.,-1.4,0.));
#578=CARTESIAN_POINT('',(10.,1.4,0.));
#579=CARTESIAN_POINT('',(0.,0.,0.));
#580=CARTESIAN_POINT('',(8.94105698449574,1.4,1.));
#581=CARTESIAN_POINT('',(8.94105698449574,-1.4,1.));
#582=CARTESIAN_POINT('',(0.,0.,1.));
#583=CARTESIAN_POINT('',(-10.,-13.,1.));
#584=CARTESIAN_POINT('',(10.,-13.,1.));
#585=CARTESIAN_POINT('',(-13.,-13.,1.));
#586=CARTESIAN_POINT('',(13.,-10.,1.));
#587=CARTESIAN_POINT('',(13.,10.,1.));
#588=CARTESIAN_POINT('',(13.,-13.,1.));
#589=CARTESIAN_POINT('',(-10.,13.,1.));
#590=CARTESIAN_POINT('',(10.,13.,1.));
#591=CARTESIAN_POINT('',(13.,13.,1.));
#592=CARTESIAN_POINT('',(-13.,10.,1.));
#593=CARTESIAN_POINT('',(-13.,-10.,1.));
#594=CARTESIAN_POINT('',(-13.,13.,1.));
#595=CARTESIAN_POINT('',(10.,10.,1.));
#596=CARTESIAN_POINT('',(-9.99999999999999,10.,1.));
#597=CARTESIAN_POINT('',(-10.,-9.99999999999998,1.));
#598=CARTESIAN_POINT('',(10.,-10.,1.));
#599=CARTESIAN_POINT('',(-10.,10.,1.));
#600=CARTESIAN_POINT('',(-10.,-10.,1.));
#601=CARTESIAN_POINT('',(10.,-10.,1.));
#602=CARTESIAN_POINT('',(10.,10.,1.));
#603=CARTESIAN_POINT('',(10.,1.4,0.));
#604=CARTESIAN_POINT('',(8.,1.4,0.));
#605=CARTESIAN_POINT('',(10.,-1.4,0.));
#606=CARTESIAN_POINT('',(10.,-1.4,0.));
#607=CARTESIAN_POINT('',(10.,1.4,0.));
#608=MECHANICAL_DESIGN_GEOMETRIC_PRESENTATION_REPRESENTATION('',(#32),#609);
#609=(
GEOMETRIC_REPRESENTATION_CONTEXT(3)
GLOBAL_UNCERTAINTY_ASSIGNED_CONTEXT((#610))
GLOBAL_UNIT_ASSIGNED_CONTEXT((#616,#612,#611))
REPRESENTATION_CONTEXT('04-0106-001','TOP_LEVEL_ASSEMBLY_PART')
);
#610=UNCERTAINTY_MEASURE_WITH_UNIT(LENGTH_MEASURE(2.E-005),#616,
'DISTANCE_ACCURACY_VALUE','Maximum Tolerance applied to model');
#611=(
NAMED_UNIT(*)
SI_UNIT($,.STERADIAN.)
SOLID_ANGLE_UNIT()
);
#612=(
CONVERSION_BASED_UNIT('DEGREE',#614)
NAMED_UNIT(#613)
PLANE_ANGLE_UNIT()
);
#613=DIMENSIONAL_EXPONENTS(0.,0.,0.,0.,0.,0.,0.);
#614=PLANE_ANGLE_MEASURE_WITH_UNIT(PLANE_ANGLE_MEASURE(0.0174532925),#615);
#615=(
NAMED_UNIT(*)
PLANE_ANGLE_UNIT()
SI_UNIT($,.RADIAN.)
);
#616=(
LENGTH_UNIT()
NAMED_UNIT(*)
SI_UNIT(.MILLI.,.METRE.)
);
ENDSEC;
END-ISO-10303-21;
