ISO-10303-21;
HEADER;
/* Generated by software containing ST-Developer
 * from STEP Tools, Inc. (www.steptools.com) 
 */
/* OPTION: using custom schema-name function */

FILE_DESCRIPTION(
/* description */ (''),
/* implementation_level */ '2;1');

FILE_NAME(
/* name */ '16_0334_000_001_01.stp',
/* time_stamp */ '2022-02-08T08:02:08+01:00',
/* author */ ('Konstruktion & Entwicklung'),
/* organization */ ('Franz Binder GmbH'),
/* preprocessor_version */ 'ST-DEVELOPER v16',
/* originating_system */ 'SIEMENS PLM Software NX 11.0',
/* authorisation */ '');

FILE_SCHEMA (('AUTOMOTIVE_DESIGN { 1 0 10303 214 3 1 1 1 }'));
ENDSEC;

DATA;
#10=SHAPE_REPRESENTATION_RELATIONSHIP('None',
'relationship between 16 0334 000 001_01-None and 16 0334 000 001_01-N
one',#22,#11);
#11=ADVANCED_BREP_SHAPE_REPRESENTATION('16 0334 000 001_01-None',(#32),
#509);
#12=SHAPE_DEFINITION_REPRESENTATION(#13,#22);
#13=PRODUCT_DEFINITION_SHAPE('','',#14);
#14=PRODUCT_DEFINITION(' ','',#16,#15);
#15=PRODUCT_DEFINITION_CONTEXT('part definition',#21,'design');
#16=PRODUCT_DEFINITION_FORMATION_WITH_SPECIFIED_SOURCE(' ',' ',#18,
 .NOT_KNOWN.);
#17=PRODUCT_RELATED_PRODUCT_CATEGORY('part','',(#18));
#18=PRODUCT('16 0334 000 001_01','16 0334 000 001_01',' ',(#19));
#19=PRODUCT_CONTEXT(' ',#21,'mechanical');
#20=APPLICATION_PROTOCOL_DEFINITION('international standard',
'automotive_design',2010,#21);
#21=APPLICATION_CONTEXT(
'core data for automotive mechanical design processes');
#22=SHAPE_REPRESENTATION('16 0334 000 001_01-None',(#290),#509);
#23=PRESENTATION_LAYER_ASSIGNMENT('1','Layer 1',(#32));
#24=STYLED_ITEM('',(#25),#32);
#25=PRESENTATION_STYLE_ASSIGNMENT((#26));
#26=SURFACE_STYLE_USAGE(.BOTH.,#27);
#27=SURFACE_SIDE_STYLE('',(#28));
#28=SURFACE_STYLE_FILL_AREA(#29);
#29=FILL_AREA_STYLE('',(#30));
#30=FILL_AREA_STYLE_COLOUR('',#31);
#31=COLOUR_RGB('Pale Carrot',0.964705882352941,0.627450980392157,0.286259250782025);
#32=MANIFOLD_SOLID_BREP('',#33);
#33=CLOSED_SHELL('',(#42,#43,#44,#45,#46,#47,#48,#49,#50,#51,#52,#53,#54,
#55,#56));
#34=PLANE('',#328);
#35=PLANE('',#330);
#36=FACE_BOUND('',#94,.T.);
#37=FACE_BOUND('',#95,.T.);
#38=FACE_BOUND('',#96,.T.);
#39=FACE_BOUND('',#97,.T.);
#40=FACE_BOUND('',#98,.T.);
#41=FACE_BOUND('',#99,.T.);
#42=ADVANCED_FACE('',(#70),#57,.T.);
#43=ADVANCED_FACE('',(#71),#58,.T.);
#44=ADVANCED_FACE('',(#72),#59,.T.);
#45=ADVANCED_FACE('',(#73),#60,.T.);
#46=ADVANCED_FACE('',(#74),#61,.T.);
#47=ADVANCED_FACE('',(#75),#62,.T.);
#48=ADVANCED_FACE('',(#76),#63,.T.);
#49=ADVANCED_FACE('',(#77),#64,.T.);
#50=ADVANCED_FACE('',(#78),#65,.T.);
#51=ADVANCED_FACE('',(#79),#66,.T.);
#52=ADVANCED_FACE('',(#80),#67,.T.);
#53=ADVANCED_FACE('',(#81),#68,.T.);
#54=ADVANCED_FACE('',(#36,#37),#34,.F.);
#55=ADVANCED_FACE('',(#38,#39),#35,.T.);
#56=ADVANCED_FACE('',(#40,#41),#69,.F.);
#57=CYLINDRICAL_SURFACE('',#293,50.5);
#58=CYLINDRICAL_SURFACE('',#296,2.5);
#59=CYLINDRICAL_SURFACE('',#299,100.5);
#60=CYLINDRICAL_SURFACE('',#302,8.5);
#61=CYLINDRICAL_SURFACE('',#305,100.5);
#62=CYLINDRICAL_SURFACE('',#308,2.5);
#63=CYLINDRICAL_SURFACE('',#311,50.5000000000002);
#64=CYLINDRICAL_SURFACE('',#314,2.5);
#65=CYLINDRICAL_SURFACE('',#317,100.500000000001);
#66=CYLINDRICAL_SURFACE('',#320,8.5);
#67=CYLINDRICAL_SURFACE('',#323,100.499999999999);
#68=CYLINDRICAL_SURFACE('',#326,2.5);
#69=CYLINDRICAL_SURFACE('',#331,8.35);
#70=FACE_OUTER_BOUND('',#82,.T.);
#71=FACE_OUTER_BOUND('',#83,.T.);
#72=FACE_OUTER_BOUND('',#84,.T.);
#73=FACE_OUTER_BOUND('',#85,.T.);
#74=FACE_OUTER_BOUND('',#86,.T.);
#75=FACE_OUTER_BOUND('',#87,.T.);
#76=FACE_OUTER_BOUND('',#88,.T.);
#77=FACE_OUTER_BOUND('',#89,.T.);
#78=FACE_OUTER_BOUND('',#90,.T.);
#79=FACE_OUTER_BOUND('',#91,.T.);
#80=FACE_OUTER_BOUND('',#92,.T.);
#81=FACE_OUTER_BOUND('',#93,.T.);
#82=EDGE_LOOP('',(#124,#125,#126,#127));
#83=EDGE_LOOP('',(#128,#129,#130,#131));
#84=EDGE_LOOP('',(#132,#133,#134,#135));
#85=EDGE_LOOP('',(#136,#137,#138,#139));
#86=EDGE_LOOP('',(#140,#141,#142,#143));
#87=EDGE_LOOP('',(#144,#145,#146,#147));
#88=EDGE_LOOP('',(#148,#149,#150,#151));
#89=EDGE_LOOP('',(#152,#153,#154,#155));
#90=EDGE_LOOP('',(#156,#157,#158,#159));
#91=EDGE_LOOP('',(#160,#161,#162,#163));
#92=EDGE_LOOP('',(#164,#165,#166,#167));
#93=EDGE_LOOP('',(#168,#169,#170,#171));
#94=EDGE_LOOP('',(#172));
#95=EDGE_LOOP('',(#173,#174,#175,#176,#177,#178,#179,#180,#181,#182,#183,
#184));
#96=EDGE_LOOP('',(#185));
#97=EDGE_LOOP('',(#186,#187,#188,#189,#190,#191,#192,#193,#194,#195,#196,
#197));
#98=EDGE_LOOP('',(#198));
#99=EDGE_LOOP('',(#199));
#100=LINE('',#432,#112);
#101=LINE('',#436,#113);
#102=LINE('',#442,#114);
#103=LINE('',#448,#115);
#104=LINE('',#454,#116);
#105=LINE('',#460,#117);
#106=LINE('',#466,#118);
#107=LINE('',#472,#119);
#108=LINE('',#478,#120);
#109=LINE('',#484,#121);
#110=LINE('',#490,#122);
#111=LINE('',#496,#123);
#112=VECTOR('',#336,1.);
#113=VECTOR('',#339,1.);
#114=VECTOR('',#346,1.);
#115=VECTOR('',#353,1.);
#116=VECTOR('',#360,1.);
#117=VECTOR('',#367,1.);
#118=VECTOR('',#374,1.);
#119=VECTOR('',#381,1.);
#120=VECTOR('',#388,1.);
#121=VECTOR('',#395,1.);
#122=VECTOR('',#402,1.);
#123=VECTOR('',#409,1.);
#124=ORIENTED_EDGE('',*,*,#226,.F.);
#125=ORIENTED_EDGE('',*,*,#227,.F.);
#126=ORIENTED_EDGE('',*,*,#228,.T.);
#127=ORIENTED_EDGE('',*,*,#229,.T.);
#128=ORIENTED_EDGE('',*,*,#230,.F.);
#129=ORIENTED_EDGE('',*,*,#229,.F.);
#130=ORIENTED_EDGE('',*,*,#231,.T.);
#131=ORIENTED_EDGE('',*,*,#232,.T.);
#132=ORIENTED_EDGE('',*,*,#233,.F.);
#133=ORIENTED_EDGE('',*,*,#232,.F.);
#134=ORIENTED_EDGE('',*,*,#234,.T.);
#135=ORIENTED_EDGE('',*,*,#235,.T.);
#136=ORIENTED_EDGE('',*,*,#236,.F.);
#137=ORIENTED_EDGE('',*,*,#235,.F.);
#138=ORIENTED_EDGE('',*,*,#237,.T.);
#139=ORIENTED_EDGE('',*,*,#238,.T.);
#140=ORIENTED_EDGE('',*,*,#239,.F.);
#141=ORIENTED_EDGE('',*,*,#238,.F.);
#142=ORIENTED_EDGE('',*,*,#240,.T.);
#143=ORIENTED_EDGE('',*,*,#241,.T.);
#144=ORIENTED_EDGE('',*,*,#242,.F.);
#145=ORIENTED_EDGE('',*,*,#241,.F.);
#146=ORIENTED_EDGE('',*,*,#243,.T.);
#147=ORIENTED_EDGE('',*,*,#244,.T.);
#148=ORIENTED_EDGE('',*,*,#245,.F.);
#149=ORIENTED_EDGE('',*,*,#244,.F.);
#150=ORIENTED_EDGE('',*,*,#246,.T.);
#151=ORIENTED_EDGE('',*,*,#247,.T.);
#152=ORIENTED_EDGE('',*,*,#248,.F.);
#153=ORIENTED_EDGE('',*,*,#247,.F.);
#154=ORIENTED_EDGE('',*,*,#249,.T.);
#155=ORIENTED_EDGE('',*,*,#250,.T.);
#156=ORIENTED_EDGE('',*,*,#251,.F.);
#157=ORIENTED_EDGE('',*,*,#250,.F.);
#158=ORIENTED_EDGE('',*,*,#252,.T.);
#159=ORIENTED_EDGE('',*,*,#253,.T.);
#160=ORIENTED_EDGE('',*,*,#254,.F.);
#161=ORIENTED_EDGE('',*,*,#253,.F.);
#162=ORIENTED_EDGE('',*,*,#255,.T.);
#163=ORIENTED_EDGE('',*,*,#256,.T.);
#164=ORIENTED_EDGE('',*,*,#257,.F.);
#165=ORIENTED_EDGE('',*,*,#256,.F.);
#166=ORIENTED_EDGE('',*,*,#258,.T.);
#167=ORIENTED_EDGE('',*,*,#259,.T.);
#168=ORIENTED_EDGE('',*,*,#260,.F.);
#169=ORIENTED_EDGE('',*,*,#259,.F.);
#170=ORIENTED_EDGE('',*,*,#261,.T.);
#171=ORIENTED_EDGE('',*,*,#227,.T.);
#172=ORIENTED_EDGE('',*,*,#262,.F.);
#173=ORIENTED_EDGE('',*,*,#228,.F.);
#174=ORIENTED_EDGE('',*,*,#261,.F.);
#175=ORIENTED_EDGE('',*,*,#258,.F.);
#176=ORIENTED_EDGE('',*,*,#255,.F.);
#177=ORIENTED_EDGE('',*,*,#252,.F.);
#178=ORIENTED_EDGE('',*,*,#249,.F.);
#179=ORIENTED_EDGE('',*,*,#246,.F.);
#180=ORIENTED_EDGE('',*,*,#243,.F.);
#181=ORIENTED_EDGE('',*,*,#240,.F.);
#182=ORIENTED_EDGE('',*,*,#237,.F.);
#183=ORIENTED_EDGE('',*,*,#234,.F.);
#184=ORIENTED_EDGE('',*,*,#231,.F.);
#185=ORIENTED_EDGE('',*,*,#263,.T.);
#186=ORIENTED_EDGE('',*,*,#226,.T.);
#187=ORIENTED_EDGE('',*,*,#230,.T.);
#188=ORIENTED_EDGE('',*,*,#233,.T.);
#189=ORIENTED_EDGE('',*,*,#236,.T.);
#190=ORIENTED_EDGE('',*,*,#239,.T.);
#191=ORIENTED_EDGE('',*,*,#242,.T.);
#192=ORIENTED_EDGE('',*,*,#245,.T.);
#193=ORIENTED_EDGE('',*,*,#248,.T.);
#194=ORIENTED_EDGE('',*,*,#251,.T.);
#195=ORIENTED_EDGE('',*,*,#254,.T.);
#196=ORIENTED_EDGE('',*,*,#257,.T.);
#197=ORIENTED_EDGE('',*,*,#260,.T.);
#198=ORIENTED_EDGE('',*,*,#263,.F.);
#199=ORIENTED_EDGE('',*,*,#262,.T.);
#200=VERTEX_POINT('',#430);
#201=VERTEX_POINT('',#431);
#202=VERTEX_POINT('',#433);
#203=VERTEX_POINT('',#435);
#204=VERTEX_POINT('',#439);
#205=VERTEX_POINT('',#441);
#206=VERTEX_POINT('',#445);
#207=VERTEX_POINT('',#447);
#208=VERTEX_POINT('',#451);
#209=VERTEX_POINT('',#453);
#210=VERTEX_POINT('',#457);
#211=VERTEX_POINT('',#459);
#212=VERTEX_POINT('',#463);
#213=VERTEX_POINT('',#465);
#214=VERTEX_POINT('',#469);
#215=VERTEX_POINT('',#471);
#216=VERTEX_POINT('',#475);
#217=VERTEX_POINT('',#477);
#218=VERTEX_POINT('',#481);
#219=VERTEX_POINT('',#483);
#220=VERTEX_POINT('',#487);
#221=VERTEX_POINT('',#489);
#222=VERTEX_POINT('',#493);
#223=VERTEX_POINT('',#495);
#224=VERTEX_POINT('',#502);
#225=VERTEX_POINT('',#505);
#226=EDGE_CURVE('',#200,#201,#264,.T.);
#227=EDGE_CURVE('',#202,#200,#100,.T.);
#228=EDGE_CURVE('',#202,#203,#265,.T.);
#229=EDGE_CURVE('',#203,#201,#101,.T.);
#230=EDGE_CURVE('',#201,#204,#266,.T.);
#231=EDGE_CURVE('',#203,#205,#267,.T.);
#232=EDGE_CURVE('',#205,#204,#102,.T.);
#233=EDGE_CURVE('',#204,#206,#268,.T.);
#234=EDGE_CURVE('',#205,#207,#269,.T.);
#235=EDGE_CURVE('',#207,#206,#103,.T.);
#236=EDGE_CURVE('',#206,#208,#270,.T.);
#237=EDGE_CURVE('',#207,#209,#271,.T.);
#238=EDGE_CURVE('',#209,#208,#104,.T.);
#239=EDGE_CURVE('',#208,#210,#272,.T.);
#240=EDGE_CURVE('',#209,#211,#273,.T.);
#241=EDGE_CURVE('',#211,#210,#105,.T.);
#242=EDGE_CURVE('',#210,#212,#274,.T.);
#243=EDGE_CURVE('',#211,#213,#275,.T.);
#244=EDGE_CURVE('',#213,#212,#106,.T.);
#245=EDGE_CURVE('',#212,#214,#276,.T.);
#246=EDGE_CURVE('',#213,#215,#277,.T.);
#247=EDGE_CURVE('',#215,#214,#107,.T.);
#248=EDGE_CURVE('',#214,#216,#278,.T.);
#249=EDGE_CURVE('',#215,#217,#279,.T.);
#250=EDGE_CURVE('',#217,#216,#108,.T.);
#251=EDGE_CURVE('',#216,#218,#280,.T.);
#252=EDGE_CURVE('',#217,#219,#281,.T.);
#253=EDGE_CURVE('',#219,#218,#109,.T.);
#254=EDGE_CURVE('',#218,#220,#282,.T.);
#255=EDGE_CURVE('',#219,#221,#283,.T.);
#256=EDGE_CURVE('',#221,#220,#110,.T.);
#257=EDGE_CURVE('',#220,#222,#284,.T.);
#258=EDGE_CURVE('',#221,#223,#285,.T.);
#259=EDGE_CURVE('',#223,#222,#111,.T.);
#260=EDGE_CURVE('',#222,#200,#286,.T.);
#261=EDGE_CURVE('',#223,#202,#287,.T.);
#262=EDGE_CURVE('',#224,#224,#288,.T.);
#263=EDGE_CURVE('',#225,#225,#289,.T.);
#264=CIRCLE('',#291,50.5);
#265=CIRCLE('',#292,50.5);
#266=CIRCLE('',#294,2.5);
#267=CIRCLE('',#295,2.5);
#268=CIRCLE('',#297,100.5);
#269=CIRCLE('',#298,100.5);
#270=CIRCLE('',#300,8.5);
#271=CIRCLE('',#301,8.5);
#272=CIRCLE('',#303,100.5);
#273=CIRCLE('',#304,100.5);
#274=CIRCLE('',#306,2.5);
#275=CIRCLE('',#307,2.5);
#276=CIRCLE('',#309,50.5000000000002);
#277=CIRCLE('',#310,50.5000000000002);
#278=CIRCLE('',#312,2.5);
#279=CIRCLE('',#313,2.5);
#280=CIRCLE('',#315,100.500000000001);
#281=CIRCLE('',#316,100.500000000001);
#282=CIRCLE('',#318,8.5);
#283=CIRCLE('',#319,8.5);
#284=CIRCLE('',#321,100.499999999999);
#285=CIRCLE('',#322,100.499999999999);
#286=CIRCLE('',#324,2.5);
#287=CIRCLE('',#325,2.5);
#288=CIRCLE('',#327,8.35);
#289=CIRCLE('',#329,8.35);
#290=AXIS2_PLACEMENT_3D('',#428,#332,#333);
#291=AXIS2_PLACEMENT_3D('',#429,#334,#335);
#292=AXIS2_PLACEMENT_3D('',#434,#337,#338);
#293=AXIS2_PLACEMENT_3D('',#437,#340,#341);
#294=AXIS2_PLACEMENT_3D('',#438,#342,#343);
#295=AXIS2_PLACEMENT_3D('',#440,#344,#345);
#296=AXIS2_PLACEMENT_3D('',#443,#347,#348);
#297=AXIS2_PLACEMENT_3D('',#444,#349,#350);
#298=AXIS2_PLACEMENT_3D('',#446,#351,#352);
#299=AXIS2_PLACEMENT_3D('',#449,#354,#355);
#300=AXIS2_PLACEMENT_3D('',#450,#356,#357);
#301=AXIS2_PLACEMENT_3D('',#452,#358,#359);
#302=AXIS2_PLACEMENT_3D('',#455,#361,#362);
#303=AXIS2_PLACEMENT_3D('',#456,#363,#364);
#304=AXIS2_PLACEMENT_3D('',#458,#365,#366);
#305=AXIS2_PLACEMENT_3D('',#461,#368,#369);
#306=AXIS2_PLACEMENT_3D('',#462,#370,#371);
#307=AXIS2_PLACEMENT_3D('',#464,#372,#373);
#308=AXIS2_PLACEMENT_3D('',#467,#375,#376);
#309=AXIS2_PLACEMENT_3D('',#468,#377,#378);
#310=AXIS2_PLACEMENT_3D('',#470,#379,#380);
#311=AXIS2_PLACEMENT_3D('',#473,#382,#383);
#312=AXIS2_PLACEMENT_3D('',#474,#384,#385);
#313=AXIS2_PLACEMENT_3D('',#476,#386,#387);
#314=AXIS2_PLACEMENT_3D('',#479,#389,#390);
#315=AXIS2_PLACEMENT_3D('',#480,#391,#392);
#316=AXIS2_PLACEMENT_3D('',#482,#393,#394);
#317=AXIS2_PLACEMENT_3D('',#485,#396,#397);
#318=AXIS2_PLACEMENT_3D('',#486,#398,#399);
#319=AXIS2_PLACEMENT_3D('',#488,#400,#401);
#320=AXIS2_PLACEMENT_3D('',#491,#403,#404);
#321=AXIS2_PLACEMENT_3D('',#492,#405,#406);
#322=AXIS2_PLACEMENT_3D('',#494,#407,#408);
#323=AXIS2_PLACEMENT_3D('',#497,#410,#411);
#324=AXIS2_PLACEMENT_3D('',#498,#412,#413);
#325=AXIS2_PLACEMENT_3D('',#499,#414,#415);
#326=AXIS2_PLACEMENT_3D('',#500,#416,#417);
#327=AXIS2_PLACEMENT_3D('',#501,#418,#419);
#328=AXIS2_PLACEMENT_3D('',#503,#420,#421);
#329=AXIS2_PLACEMENT_3D('',#504,#422,#423);
#330=AXIS2_PLACEMENT_3D('',#506,#424,#425);
#331=AXIS2_PLACEMENT_3D('',#507,#426,#427);
#332=DIRECTION('',(0.,0.,1.));
#333=DIRECTION('',(1.,0.,0.));
#334=DIRECTION('',(0.,1.,0.));
#335=DIRECTION('',(0.,0.,1.));
#336=DIRECTION('',(0.,1.,0.));
#337=DIRECTION('',(0.,1.,0.));
#338=DIRECTION('',(0.,0.,1.));
#339=DIRECTION('',(0.,1.,0.));
#340=DIRECTION('',(0.,1.,0.));
#341=DIRECTION('',(0.,0.,1.));
#342=DIRECTION('',(0.,1.,0.));
#343=DIRECTION('',(0.,0.,1.));
#344=DIRECTION('',(0.,1.,0.));
#345=DIRECTION('',(0.,0.,1.));
#346=DIRECTION('',(0.,1.,0.));
#347=DIRECTION('',(0.,1.,0.));
#348=DIRECTION('',(0.,0.,1.));
#349=DIRECTION('',(0.,1.,0.));
#350=DIRECTION('',(0.,0.,1.));
#351=DIRECTION('',(0.,1.,0.));
#352=DIRECTION('',(0.,0.,1.));
#353=DIRECTION('',(0.,1.,0.));
#354=DIRECTION('',(0.,1.,0.));
#355=DIRECTION('',(0.,0.,1.));
#356=DIRECTION('',(0.,1.,0.));
#357=DIRECTION('',(0.,0.,1.));
#358=DIRECTION('',(0.,1.,0.));
#359=DIRECTION('',(0.,0.,1.));
#360=DIRECTION('',(0.,1.,0.));
#361=DIRECTION('',(0.,1.,0.));
#362=DIRECTION('',(0.,0.,1.));
#363=DIRECTION('',(0.,1.,0.));
#364=DIRECTION('',(0.,0.,1.));
#365=DIRECTION('',(0.,1.,0.));
#366=DIRECTION('',(0.,0.,1.));
#367=DIRECTION('',(0.,1.,0.));
#368=DIRECTION('',(0.,1.,0.));
#369=DIRECTION('',(0.,0.,1.));
#370=DIRECTION('',(0.,1.,0.));
#371=DIRECTION('',(0.,0.,1.));
#372=DIRECTION('',(0.,1.,0.));
#373=DIRECTION('',(0.,0.,1.));
#374=DIRECTION('',(0.,1.,0.));
#375=DIRECTION('',(0.,1.,0.));
#376=DIRECTION('',(0.,0.,1.));
#377=DIRECTION('',(0.,1.,0.));
#378=DIRECTION('',(0.,0.,1.));
#379=DIRECTION('',(0.,1.,0.));
#380=DIRECTION('',(0.,0.,1.));
#381=DIRECTION('',(0.,1.,0.));
#382=DIRECTION('',(0.,1.,0.));
#383=DIRECTION('',(0.,0.,1.));
#384=DIRECTION('',(0.,1.,0.));
#385=DIRECTION('',(0.,0.,1.));
#386=DIRECTION('',(0.,1.,0.));
#387=DIRECTION('',(0.,0.,1.));
#388=DIRECTION('',(0.,1.,0.));
#389=DIRECTION('',(0.,1.,0.));
#390=DIRECTION('',(0.,0.,1.));
#391=DIRECTION('',(0.,1.,0.));
#392=DIRECTION('',(0.,0.,1.));
#393=DIRECTION('',(0.,1.,0.));
#394=DIRECTION('',(0.,0.,1.));
#395=DIRECTION('',(0.,1.,0.));
#396=DIRECTION('',(0.,1.,0.));
#397=DIRECTION('',(0.,0.,1.));
#398=DIRECTION('',(0.,1.,0.));
#399=DIRECTION('',(0.,0.,1.));
#400=DIRECTION('',(0.,1.,0.));
#401=DIRECTION('',(0.,0.,1.));
#402=DIRECTION('',(0.,1.,0.));
#403=DIRECTION('',(0.,1.,0.));
#404=DIRECTION('',(0.,0.,1.));
#405=DIRECTION('',(0.,1.,0.));
#406=DIRECTION('',(0.,0.,1.));
#407=DIRECTION('',(0.,1.,0.));
#408=DIRECTION('',(0.,0.,1.));
#409=DIRECTION('',(0.,1.,0.));
#410=DIRECTION('',(0.,1.,0.));
#411=DIRECTION('',(0.,0.,1.));
#412=DIRECTION('',(0.,1.,0.));
#413=DIRECTION('',(0.,0.,1.));
#414=DIRECTION('',(0.,1.,0.));
#415=DIRECTION('',(0.,0.,1.));
#416=DIRECTION('',(0.,1.,0.));
#417=DIRECTION('',(0.,0.,1.));
#418=DIRECTION('',(0.,-1.,0.));
#419=DIRECTION('',(0.,0.,1.));
#420=DIRECTION('',(0.,1.,0.));
#421=DIRECTION('',(0.,0.,1.));
#422=DIRECTION('',(0.,-1.,0.));
#423=DIRECTION('',(0.,0.,1.));
#424=DIRECTION('',(0.,1.,0.));
#425=DIRECTION('',(0.,0.,1.));
#426=DIRECTION('',(0.,-1.,0.));
#427=DIRECTION('',(0.,0.,-1.));
#428=CARTESIAN_POINT('',(0.,0.,0.));
#429=CARTESIAN_POINT('',(9.1000000000003,0.599999999999686,-34.7727450846601));
#430=CARTESIAN_POINT('',(5.73892189184964,0.599999999999686,15.6152808138698));
#431=CARTESIAN_POINT('',(12.4610781081503,0.599999999999686,15.6152808138698));
#432=CARTESIAN_POINT('',(5.73892189184964,-0.400000000000315,15.6152808138698));
#433=CARTESIAN_POINT('',(5.73892189184964,-0.400000000000314,15.6152808138697));
#434=CARTESIAN_POINT('',(9.1000000000003,-0.400000000000314,-34.7727450846601));
#435=CARTESIAN_POINT('',(12.4610781081503,-0.400000000000314,15.6152808138698));
#436=CARTESIAN_POINT('',(12.4610781081503,-0.400000000000314,15.6152808138698));
#437=CARTESIAN_POINT('',(9.1000000000003,-0.400000000000314,-34.7727450846601));
#438=CARTESIAN_POINT('',(12.2946881027963,0.599999999999686,13.1208240862198));
#439=CARTESIAN_POINT('',(14.4075826641856,0.599999999999686,14.4571161846966));
#440=CARTESIAN_POINT('',(12.2946881027963,-0.400000000000314,13.1208240862198));
#441=CARTESIAN_POINT('',(14.4075826641856,-0.400000000000314,14.4571161846965));
#442=CARTESIAN_POINT('',(14.4075826641856,-0.400000000000314,14.4571161846966));
#443=CARTESIAN_POINT('',(12.2946881027963,-0.400000000000314,13.1208240862198));
#444=CARTESIAN_POINT('',(-70.5307787036649,0.599999999999686,-39.2618261740698));
#445=CARTESIAN_POINT('',(19.2335536760917,0.599999999999686,5.93346818736333));
#446=CARTESIAN_POINT('',(-70.5307787036649,-0.400000000000314,-39.2618261740698));
#447=CARTESIAN_POINT('',(19.2335536760918,-0.400000000000314,5.93346818736336));
#448=CARTESIAN_POINT('',(19.2335536760917,-0.400000000000314,5.93346818736333));
#449=CARTESIAN_POINT('',(-70.5307787036649,-0.400000000000314,-39.2618261740698));
#450=CARTESIAN_POINT('',(11.6415454648686,0.599999999999686,2.11098060455561));
#451=CARTESIAN_POINT('',(19.8623899378994,0.599999999999685,-0.0495091895046625));
#452=CARTESIAN_POINT('',(11.6415454648686,-0.400000000000314,2.11098060455561));
#453=CARTESIAN_POINT('',(19.8623899378994,-0.400000000000315,-0.0495091895046582));
#454=CARTESIAN_POINT('',(19.8623899378994,-0.400000000000315,-0.0495091895046625));
#455=CARTESIAN_POINT('',(11.6415454648686,-0.400000000000315,2.11098060455561));
#456=CARTESIAN_POINT('',(-77.3370064785239,0.599999999999686,25.4951054343845));
#457=CARTESIAN_POINT('',(15.1216759631169,0.599999999999686,-13.8957823590612));
#458=CARTESIAN_POINT('',(-77.3370064785239,-0.400000000000314,25.4951054343845));
#459=CARTESIAN_POINT('',(15.121675963117,-0.400000000000314,-13.8957823590612));
#460=CARTESIAN_POINT('',(15.1216759631169,-0.400000000000314,-13.8957823590612));
#461=CARTESIAN_POINT('',(-77.3370064785239,-0.400000000000314,25.4951054343845));
#462=CARTESIAN_POINT('',(12.8217087382006,0.599999999999686,-12.9159095283785));
#463=CARTESIAN_POINT('',(13.0155449998407,0.599999999999685,-15.4083837014991));
#464=CARTESIAN_POINT('',(12.8217087382006,-0.400000000000314,-12.9159095283785));
#465=CARTESIAN_POINT('',(13.0155447926822,-0.400000000000315,-15.4083837176111));
#466=CARTESIAN_POINT('',(13.0155449998407,-0.400000000000315,-15.4083837014991));
#467=CARTESIAN_POINT('',(12.8217087382006,-0.400000000000315,-12.9159095283785));
#468=CARTESIAN_POINT('',(9.10000000000081,0.599999999999686,34.9395905115127));
#469=CARTESIAN_POINT('',(5.18445521777099,0.599999999999686,-15.408383718424));
#470=CARTESIAN_POINT('',(9.10000000000081,-0.400000000000314,34.9395905115127));
#471=CARTESIAN_POINT('',(5.18445500987649,-0.400000000000314,-15.4083837022547));
#472=CARTESIAN_POINT('',(5.18445521777099,-0.400000000000314,-15.408383718424));
#473=CARTESIAN_POINT('',(9.10000000000081,-0.400000000000314,34.9395905115127));
#474=CARTESIAN_POINT('',(5.37829126179947,0.599999999999686,-12.9159095283784));
#475=CARTESIAN_POINT('',(3.07832403688305,0.599999999999686,-13.8957823590612));
#476=CARTESIAN_POINT('',(5.37829126179947,-0.400000000000314,-12.9159095283784));
#477=CARTESIAN_POINT('',(3.07832403688314,-0.400000000000314,-13.8957823590611));
#478=CARTESIAN_POINT('',(3.07832403688305,-0.400000000000314,-13.8957823590612));
#479=CARTESIAN_POINT('',(5.37829126179947,-0.400000000000314,-12.9159095283784));
#480=CARTESIAN_POINT('',(95.5370064785239,0.599999999999686,25.4951054343862));
#481=CARTESIAN_POINT('',(-1.6623899378993,0.599999999999685,-0.0495091895055533));
#482=CARTESIAN_POINT('',(95.5370064785239,-0.400000000000314,25.4951054343862));
#483=CARTESIAN_POINT('',(-1.66238993789937,-0.400000000000315,-0.0495091895055789));
#484=CARTESIAN_POINT('',(-1.6623899378993,-0.400000000000315,-0.0495091895055533));
#485=CARTESIAN_POINT('',(95.5370064785239,-0.400000000000315,25.4951054343862));
#486=CARTESIAN_POINT('',(6.5584545351314,0.599999999999686,2.11098060455488));
#487=CARTESIAN_POINT('',(-1.03355367609193,0.599999999999686,5.93346818736239));
#488=CARTESIAN_POINT('',(6.5584545351314,-0.400000000000314,2.11098060455488));
#489=CARTESIAN_POINT('',(-1.03355367609188,-0.400000000000314,5.9334681873623));
#490=CARTESIAN_POINT('',(-1.03355367609193,-0.400000000000314,5.93346818736239));
#491=CARTESIAN_POINT('',(6.5584545351314,-0.400000000000314,2.11098060455488));
#492=CARTESIAN_POINT('',(88.7307787036658,0.599999999999686,-39.2618261740674));
#493=CARTESIAN_POINT('',(3.79241733581442,0.599999999999685,14.4571161846964));
#494=CARTESIAN_POINT('',(88.7307787036658,-0.400000000000314,-39.2618261740674));
#495=CARTESIAN_POINT('',(3.79241733581427,-0.400000000000315,14.4571161846965));
#496=CARTESIAN_POINT('',(3.79241733581442,-0.400000000000315,14.4571161846964));
#497=CARTESIAN_POINT('',(88.7307787036658,-0.400000000000315,-39.2618261740674));
#498=CARTESIAN_POINT('',(5.90531189720363,0.599999999999686,13.1208240862198));
#499=CARTESIAN_POINT('',(5.90531189720363,-0.400000000000314,13.1208240862198));
#500=CARTESIAN_POINT('',(5.90531189720363,-0.400000000000315,13.1208240862198));
#501=CARTESIAN_POINT('',(9.1000000000003,-0.400000000000314,0.));
#502=CARTESIAN_POINT('',(9.1000000000003,-0.400000000000314,8.35));
#503=CARTESIAN_POINT('',(10.6973440513983,-0.400000000000314,-10.8259604992201));
#504=CARTESIAN_POINT('',(9.1000000000003,0.599999999999686,0.));
#505=CARTESIAN_POINT('',(9.1000000000003,0.599999999999686,8.35));
#506=CARTESIAN_POINT('',(10.6973440513983,0.599999999999686,-10.8259604992201));
#507=CARTESIAN_POINT('',(9.1000000000003,1.11132486540487,0.));
#508=MECHANICAL_DESIGN_GEOMETRIC_PRESENTATION_REPRESENTATION('',(#24),#509);
#509=(
GEOMETRIC_REPRESENTATION_CONTEXT(3)
GLOBAL_UNCERTAINTY_ASSIGNED_CONTEXT((#510))
GLOBAL_UNIT_ASSIGNED_CONTEXT((#516,#512,#511))
REPRESENTATION_CONTEXT('16_0334_000_001_01','TOP_LEVEL_ASSEMBLY_PART')
);
#510=UNCERTAINTY_MEASURE_WITH_UNIT(LENGTH_MEASURE(2.E-5),#516,
'DISTANCE_ACCURACY_VALUE','Maximum Tolerance applied to model');
#511=(
NAMED_UNIT(*)
SI_UNIT($,.STERADIAN.)
SOLID_ANGLE_UNIT()
);
#512=(
CONVERSION_BASED_UNIT('DEGREE',#514)
NAMED_UNIT(#513)
PLANE_ANGLE_UNIT()
);
#513=DIMENSIONAL_EXPONENTS(0.,0.,0.,0.,0.,0.,0.);
#514=PLANE_ANGLE_MEASURE_WITH_UNIT(PLANE_ANGLE_MEASURE(0.0174532925),#515);
#515=(
NAMED_UNIT(*)
PLANE_ANGLE_UNIT()
SI_UNIT($,.RADIAN.)
);
#516=(
LENGTH_UNIT()
NAMED_UNIT(*)
SI_UNIT(.MILLI.,.METRE.)
);
ENDSEC;
END-ISO-10303-21;
