ISO-10303-21;
HEADER;
/* Generated by software containing ST-Developer
 * from STEP Tools, Inc. (www.steptools.com) 
 */
/* OPTION: using custom schema-name function */

FILE_DESCRIPTION(
/* description */ (''),
/* implementation_level */ '2;1');

FILE_NAME(
/* name */ '16 8092 000 001_01-Dichtung.stp',
/* time_stamp */ '2020-08-20T12:06:22+02:00',
/* author */ (''),
/* organization */ (''),
/* preprocessor_version */ 'ST-DEVELOPER v16',
/* originating_system */ 'SIEMENS PLM Software NX 11.0',
/* authorisation */ '');

FILE_SCHEMA (('AUTOMOTIVE_DESIGN { 1 0 10303 214 3 1 1 1 }'));
ENDSEC;

DATA;
#10=PROPERTY_DEFINITION_REPRESENTATION(#14,#12);
#11=PROPERTY_DEFINITION_REPRESENTATION(#15,#13);
#12=REPRESENTATION('',(#16),#475);
#13=REPRESENTATION('',(#17),#475);
#14=PROPERTY_DEFINITION('pmi validation property','',#21);
#15=PROPERTY_DEFINITION('pmi validation property','',#21);
#16=VALUE_REPRESENTATION_ITEM('number of annotations',COUNT_MEASURE(0.));
#17=VALUE_REPRESENTATION_ITEM('number of views',COUNT_MEASURE(0.));
#18=SHAPE_REPRESENTATION_RELATIONSHIP('None',
'relationship between rhen0474787Ecrhf-None and rhen0474787Ecrhf-None',
#30,#19);
#19=ADVANCED_BREP_SHAPE_REPRESENTATION('rhen0474787Ecrhf-None',(#40),#475);
#20=SHAPE_DEFINITION_REPRESENTATION(#21,#30);
#21=PRODUCT_DEFINITION_SHAPE('','',#22);
#22=PRODUCT_DEFINITION(' ','',#24,#23);
#23=PRODUCT_DEFINITION_CONTEXT('part definition',#29,'design');
#24=PRODUCT_DEFINITION_FORMATION_WITH_SPECIFIED_SOURCE(' ',' ',#26,
 .NOT_KNOWN.);
#25=PRODUCT_RELATED_PRODUCT_CATEGORY('part','',(#26));
#26=PRODUCT('rhen0474787Ecrhf','rhen0474787Ecrhf',' ',(#27));
#27=PRODUCT_CONTEXT(' ',#29,'mechanical');
#28=APPLICATION_PROTOCOL_DEFINITION('international standard',
'automotive_design',2010,#29);
#29=APPLICATION_CONTEXT(
'core data for automotive mechanical design processes');
#30=SHAPE_REPRESENTATION('rhen0474787Ecrhf-None',(#294),#475);
#31=PRESENTATION_LAYER_ASSIGNMENT('1','Layer 1',(#40));
#32=STYLED_ITEM('',(#33),#40);
#33=PRESENTATION_STYLE_ASSIGNMENT((#34));
#34=SURFACE_STYLE_USAGE(.BOTH.,#35);
#35=SURFACE_SIDE_STYLE('',(#36));
#36=SURFACE_STYLE_FILL_AREA(#37);
#37=FILL_AREA_STYLE('',(#38));
#38=FILL_AREA_STYLE_COLOUR('',#39);
#39=COLOUR_RGB('Lime',0.8,1.,0.2);
#40=MANIFOLD_SOLID_BREP('',#41);
#41=CLOSED_SHELL('',(#60,#61,#62,#63,#64,#65,#66,#67,#68,#69,#70,#71,#72,
#73));
#42=CYLINDRICAL_SURFACE('',#314,4.);
#43=CYLINDRICAL_SURFACE('',#316,4.);
#44=CYLINDRICAL_SURFACE('',#317,4.5);
#45=CYLINDRICAL_SURFACE('',#318,4.5);
#46=CYLINDRICAL_SURFACE('',#319,4.5);
#47=CYLINDRICAL_SURFACE('',#320,4.5);
#48=FACE_OUTER_BOUND('',#88,.T.);
#49=FACE_OUTER_BOUND('',#89,.T.);
#50=FACE_OUTER_BOUND('',#90,.T.);
#51=FACE_OUTER_BOUND('',#93,.T.);
#52=FACE_OUTER_BOUND('',#94,.T.);
#53=FACE_OUTER_BOUND('',#95,.T.);
#54=FACE_OUTER_BOUND('',#96,.T.);
#55=FACE_OUTER_BOUND('',#97,.T.);
#56=FACE_OUTER_BOUND('',#98,.T.);
#57=FACE_OUTER_BOUND('',#99,.T.);
#58=FACE_OUTER_BOUND('',#100,.T.);
#59=FACE_OUTER_BOUND('',#101,.T.);
#60=ADVANCED_FACE('',(#82,#83),#74,.T.);
#61=ADVANCED_FACE('',(#48),#75,.T.);
#62=ADVANCED_FACE('',(#49),#76,.T.);
#63=ADVANCED_FACE('',(#50),#77,.T.);
#64=ADVANCED_FACE('',(#84,#85),#78,.T.);
#65=ADVANCED_FACE('',(#51),#79,.T.);
#66=ADVANCED_FACE('',(#52),#80,.F.);
#67=ADVANCED_FACE('',(#53),#42,.F.);
#68=ADVANCED_FACE('',(#54),#81,.F.);
#69=ADVANCED_FACE('',(#55),#43,.F.);
#70=ADVANCED_FACE('',(#56),#44,.T.);
#71=ADVANCED_FACE('',(#57),#45,.T.);
#72=ADVANCED_FACE('',(#58),#46,.T.);
#73=ADVANCED_FACE('',(#59),#47,.T.);
#74=PLANE('',#301);
#75=PLANE('',#302);
#76=PLANE('',#303);
#77=PLANE('',#304);
#78=PLANE('',#311);
#79=PLANE('',#312);
#80=PLANE('',#313);
#81=PLANE('',#315);
#82=FACE_BOUND('',#86,.T.);
#83=FACE_BOUND('',#87,.T.);
#84=FACE_BOUND('',#91,.T.);
#85=FACE_BOUND('',#92,.T.);
#86=EDGE_LOOP('',(#114,#115,#116,#117));
#87=EDGE_LOOP('',(#118,#119,#120,#121,#122,#123,#124,#125));
#88=EDGE_LOOP('',(#126,#127,#128,#129));
#89=EDGE_LOOP('',(#130,#131,#132,#133));
#90=EDGE_LOOP('',(#134,#135,#136,#137));
#91=EDGE_LOOP('',(#138,#139,#140,#141));
#92=EDGE_LOOP('',(#142,#143,#144,#145,#146,#147,#148,#149));
#93=EDGE_LOOP('',(#150,#151,#152,#153));
#94=EDGE_LOOP('',(#154,#155,#156,#157));
#95=EDGE_LOOP('',(#158,#159,#160,#161));
#96=EDGE_LOOP('',(#162,#163,#164,#165));
#97=EDGE_LOOP('',(#166,#167,#168,#169));
#98=EDGE_LOOP('',(#170,#171,#172,#173));
#99=EDGE_LOOP('',(#174,#175,#176,#177));
#100=EDGE_LOOP('',(#178,#179,#180,#181));
#101=EDGE_LOOP('',(#182,#183,#184,#185));
#102=CIRCLE('',#295,4.);
#103=CIRCLE('',#296,4.);
#104=CIRCLE('',#297,4.5);
#105=CIRCLE('',#298,4.5);
#106=CIRCLE('',#299,4.5);
#107=CIRCLE('',#300,4.5);
#108=CIRCLE('',#305,4.);
#109=CIRCLE('',#306,4.);
#110=CIRCLE('',#307,4.5);
#111=CIRCLE('',#308,4.5);
#112=CIRCLE('',#309,4.5);
#113=CIRCLE('',#310,4.5);
#114=ORIENTED_EDGE('',*,*,#210,.T.);
#115=ORIENTED_EDGE('',*,*,#211,.F.);
#116=ORIENTED_EDGE('',*,*,#212,.F.);
#117=ORIENTED_EDGE('',*,*,#213,.F.);
#118=ORIENTED_EDGE('',*,*,#214,.F.);
#119=ORIENTED_EDGE('',*,*,#215,.T.);
#120=ORIENTED_EDGE('',*,*,#216,.F.);
#121=ORIENTED_EDGE('',*,*,#217,.T.);
#122=ORIENTED_EDGE('',*,*,#218,.F.);
#123=ORIENTED_EDGE('',*,*,#219,.T.);
#124=ORIENTED_EDGE('',*,*,#220,.F.);
#125=ORIENTED_EDGE('',*,*,#221,.T.);
#126=ORIENTED_EDGE('',*,*,#222,.T.);
#127=ORIENTED_EDGE('',*,*,#223,.T.);
#128=ORIENTED_EDGE('',*,*,#214,.T.);
#129=ORIENTED_EDGE('',*,*,#224,.T.);
#130=ORIENTED_EDGE('',*,*,#220,.T.);
#131=ORIENTED_EDGE('',*,*,#225,.T.);
#132=ORIENTED_EDGE('',*,*,#226,.T.);
#133=ORIENTED_EDGE('',*,*,#227,.T.);
#134=ORIENTED_EDGE('',*,*,#218,.T.);
#135=ORIENTED_EDGE('',*,*,#228,.T.);
#136=ORIENTED_EDGE('',*,*,#229,.T.);
#137=ORIENTED_EDGE('',*,*,#230,.T.);
#138=ORIENTED_EDGE('',*,*,#231,.F.);
#139=ORIENTED_EDGE('',*,*,#232,.T.);
#140=ORIENTED_EDGE('',*,*,#233,.T.);
#141=ORIENTED_EDGE('',*,*,#234,.T.);
#142=ORIENTED_EDGE('',*,*,#235,.F.);
#143=ORIENTED_EDGE('',*,*,#236,.T.);
#144=ORIENTED_EDGE('',*,*,#222,.F.);
#145=ORIENTED_EDGE('',*,*,#237,.T.);
#146=ORIENTED_EDGE('',*,*,#226,.F.);
#147=ORIENTED_EDGE('',*,*,#238,.T.);
#148=ORIENTED_EDGE('',*,*,#229,.F.);
#149=ORIENTED_EDGE('',*,*,#239,.T.);
#150=ORIENTED_EDGE('',*,*,#216,.T.);
#151=ORIENTED_EDGE('',*,*,#240,.T.);
#152=ORIENTED_EDGE('',*,*,#235,.T.);
#153=ORIENTED_EDGE('',*,*,#241,.T.);
#154=ORIENTED_EDGE('',*,*,#210,.F.);
#155=ORIENTED_EDGE('',*,*,#242,.F.);
#156=ORIENTED_EDGE('',*,*,#231,.T.);
#157=ORIENTED_EDGE('',*,*,#243,.T.);
#158=ORIENTED_EDGE('',*,*,#213,.T.);
#159=ORIENTED_EDGE('',*,*,#244,.F.);
#160=ORIENTED_EDGE('',*,*,#232,.F.);
#161=ORIENTED_EDGE('',*,*,#242,.T.);
#162=ORIENTED_EDGE('',*,*,#212,.T.);
#163=ORIENTED_EDGE('',*,*,#245,.F.);
#164=ORIENTED_EDGE('',*,*,#233,.F.);
#165=ORIENTED_EDGE('',*,*,#244,.T.);
#166=ORIENTED_EDGE('',*,*,#211,.T.);
#167=ORIENTED_EDGE('',*,*,#243,.F.);
#168=ORIENTED_EDGE('',*,*,#234,.F.);
#169=ORIENTED_EDGE('',*,*,#245,.T.);
#170=ORIENTED_EDGE('',*,*,#236,.F.);
#171=ORIENTED_EDGE('',*,*,#240,.F.);
#172=ORIENTED_EDGE('',*,*,#215,.F.);
#173=ORIENTED_EDGE('',*,*,#223,.F.);
#174=ORIENTED_EDGE('',*,*,#239,.F.);
#175=ORIENTED_EDGE('',*,*,#228,.F.);
#176=ORIENTED_EDGE('',*,*,#217,.F.);
#177=ORIENTED_EDGE('',*,*,#241,.F.);
#178=ORIENTED_EDGE('',*,*,#238,.F.);
#179=ORIENTED_EDGE('',*,*,#225,.F.);
#180=ORIENTED_EDGE('',*,*,#219,.F.);
#181=ORIENTED_EDGE('',*,*,#230,.F.);
#182=ORIENTED_EDGE('',*,*,#237,.F.);
#183=ORIENTED_EDGE('',*,*,#224,.F.);
#184=ORIENTED_EDGE('',*,*,#221,.F.);
#185=ORIENTED_EDGE('',*,*,#227,.F.);
#186=VERTEX_POINT('',#401);
#187=VERTEX_POINT('',#402);
#188=VERTEX_POINT('',#404);
#189=VERTEX_POINT('',#406);
#190=VERTEX_POINT('',#409);
#191=VERTEX_POINT('',#410);
#192=VERTEX_POINT('',#412);
#193=VERTEX_POINT('',#414);
#194=VERTEX_POINT('',#416);
#195=VERTEX_POINT('',#418);
#196=VERTEX_POINT('',#420);
#197=VERTEX_POINT('',#422);
#198=VERTEX_POINT('',#426);
#199=VERTEX_POINT('',#427);
#200=VERTEX_POINT('',#432);
#201=VERTEX_POINT('',#434);
#202=VERTEX_POINT('',#438);
#203=VERTEX_POINT('',#440);
#204=VERTEX_POINT('',#444);
#205=VERTEX_POINT('',#445);
#206=VERTEX_POINT('',#447);
#207=VERTEX_POINT('',#449);
#208=VERTEX_POINT('',#452);
#209=VERTEX_POINT('',#453);
#210=EDGE_CURVE('',#186,#187,#246,.T.);
#211=EDGE_CURVE('',#188,#187,#102,.T.);
#212=EDGE_CURVE('',#189,#188,#247,.T.);
#213=EDGE_CURVE('',#186,#189,#103,.T.);
#214=EDGE_CURVE('',#190,#191,#248,.T.);
#215=EDGE_CURVE('',#190,#192,#104,.T.);
#216=EDGE_CURVE('',#193,#192,#249,.T.);
#217=EDGE_CURVE('',#193,#194,#105,.T.);
#218=EDGE_CURVE('',#195,#194,#250,.T.);
#219=EDGE_CURVE('',#195,#196,#106,.T.);
#220=EDGE_CURVE('',#197,#196,#251,.T.);
#221=EDGE_CURVE('',#197,#191,#107,.T.);
#222=EDGE_CURVE('',#198,#199,#252,.T.);
#223=EDGE_CURVE('',#199,#190,#253,.T.);
#224=EDGE_CURVE('',#191,#198,#254,.T.);
#225=EDGE_CURVE('',#196,#200,#255,.T.);
#226=EDGE_CURVE('',#200,#201,#256,.T.);
#227=EDGE_CURVE('',#201,#197,#257,.T.);
#228=EDGE_CURVE('',#194,#202,#258,.T.);
#229=EDGE_CURVE('',#202,#203,#259,.T.);
#230=EDGE_CURVE('',#203,#195,#260,.T.);
#231=EDGE_CURVE('',#204,#205,#261,.T.);
#232=EDGE_CURVE('',#204,#206,#108,.T.);
#233=EDGE_CURVE('',#206,#207,#262,.T.);
#234=EDGE_CURVE('',#207,#205,#109,.T.);
#235=EDGE_CURVE('',#208,#209,#263,.T.);
#236=EDGE_CURVE('',#208,#199,#110,.T.);
#237=EDGE_CURVE('',#198,#201,#111,.T.);
#238=EDGE_CURVE('',#200,#203,#112,.T.);
#239=EDGE_CURVE('',#202,#209,#113,.T.);
#240=EDGE_CURVE('',#192,#208,#264,.T.);
#241=EDGE_CURVE('',#209,#193,#265,.T.);
#242=EDGE_CURVE('',#204,#186,#266,.T.);
#243=EDGE_CURVE('',#205,#187,#267,.T.);
#244=EDGE_CURVE('',#206,#189,#268,.T.);
#245=EDGE_CURVE('',#207,#188,#269,.T.);
#246=LINE('',#400,#270);
#247=LINE('',#405,#271);
#248=LINE('',#408,#272);
#249=LINE('',#413,#273);
#250=LINE('',#417,#274);
#251=LINE('',#421,#275);
#252=LINE('',#425,#276);
#253=LINE('',#428,#277);
#254=LINE('',#429,#278);
#255=LINE('',#431,#279);
#256=LINE('',#433,#280);
#257=LINE('',#435,#281);
#258=LINE('',#437,#282);
#259=LINE('',#439,#283);
#260=LINE('',#441,#284);
#261=LINE('',#443,#285);
#262=LINE('',#448,#286);
#263=LINE('',#451,#287);
#264=LINE('',#459,#288);
#265=LINE('',#460,#289);
#266=LINE('',#462,#290);
#267=LINE('',#463,#291);
#268=LINE('',#465,#292);
#269=LINE('',#467,#293);
#270=VECTOR('',#323,1.);
#271=VECTOR('',#326,1.);
#272=VECTOR('',#329,1.);
#273=VECTOR('',#332,1.);
#274=VECTOR('',#335,1.);
#275=VECTOR('',#338,1.);
#276=VECTOR('',#343,1.);
#277=VECTOR('',#344,1.);
#278=VECTOR('',#345,1.);
#279=VECTOR('',#348,1.);
#280=VECTOR('',#349,1.);
#281=VECTOR('',#350,1.);
#282=VECTOR('',#353,1.);
#283=VECTOR('',#354,1.);
#284=VECTOR('',#355,1.);
#285=VECTOR('',#358,1.);
#286=VECTOR('',#361,1.);
#287=VECTOR('',#364,1.);
#288=VECTOR('',#375,1.);
#289=VECTOR('',#376,1.);
#290=VECTOR('',#379,1.);
#291=VECTOR('',#380,1.);
#292=VECTOR('',#383,1.);
#293=VECTOR('',#386,1.);
#294=AXIS2_PLACEMENT_3D('',#399,#321,#322);
#295=AXIS2_PLACEMENT_3D('',#403,#324,#325);
#296=AXIS2_PLACEMENT_3D('',#407,#327,#328);
#297=AXIS2_PLACEMENT_3D('',#411,#330,#331);
#298=AXIS2_PLACEMENT_3D('',#415,#333,#334);
#299=AXIS2_PLACEMENT_3D('',#419,#336,#337);
#300=AXIS2_PLACEMENT_3D('',#423,#339,#340);
#301=AXIS2_PLACEMENT_3D('',#424,#341,#342);
#302=AXIS2_PLACEMENT_3D('',#430,#346,#347);
#303=AXIS2_PLACEMENT_3D('',#436,#351,#352);
#304=AXIS2_PLACEMENT_3D('',#442,#356,#357);
#305=AXIS2_PLACEMENT_3D('',#446,#359,#360);
#306=AXIS2_PLACEMENT_3D('',#450,#362,#363);
#307=AXIS2_PLACEMENT_3D('',#454,#365,#366);
#308=AXIS2_PLACEMENT_3D('',#455,#367,#368);
#309=AXIS2_PLACEMENT_3D('',#456,#369,#370);
#310=AXIS2_PLACEMENT_3D('',#457,#371,#372);
#311=AXIS2_PLACEMENT_3D('',#458,#373,#374);
#312=AXIS2_PLACEMENT_3D('',#461,#377,#378);
#313=AXIS2_PLACEMENT_3D('',#464,#381,#382);
#314=AXIS2_PLACEMENT_3D('',#466,#384,#385);
#315=AXIS2_PLACEMENT_3D('',#468,#387,#388);
#316=AXIS2_PLACEMENT_3D('',#469,#389,#390);
#317=AXIS2_PLACEMENT_3D('',#470,#391,#392);
#318=AXIS2_PLACEMENT_3D('',#471,#393,#394);
#319=AXIS2_PLACEMENT_3D('',#472,#395,#396);
#320=AXIS2_PLACEMENT_3D('',#473,#397,#398);
#321=DIRECTION('',(0.,0.,1.));
#322=DIRECTION('',(1.,0.,0.));
#323=DIRECTION('',(0.,1.,0.));
#324=DIRECTION('',(0.,0.,1.));
#325=DIRECTION('',(1.,0.,0.));
#326=DIRECTION('',(0.,1.,0.));
#327=DIRECTION('',(0.,0.,1.));
#328=DIRECTION('',(1.,0.,0.));
#329=DIRECTION('',(-1.,0.,0.));
#330=DIRECTION('',(0.,0.,1.));
#331=DIRECTION('',(1.,0.,0.));
#332=DIRECTION('',(0.,-1.,0.));
#333=DIRECTION('',(0.,0.,1.));
#334=DIRECTION('',(1.,0.,0.));
#335=DIRECTION('',(1.,0.,0.));
#336=DIRECTION('',(0.,0.,1.));
#337=DIRECTION('',(1.,0.,0.));
#338=DIRECTION('',(0.,1.,0.));
#339=DIRECTION('',(0.,0.,1.));
#340=DIRECTION('',(1.,0.,0.));
#341=DIRECTION('',(0.,0.,1.));
#342=DIRECTION('',(1.,0.,0.));
#343=DIRECTION('',(1.,0.,0.));
#344=DIRECTION('',(0.,0.,1.));
#345=DIRECTION('',(0.,0.,-1.));
#346=DIRECTION('',(0.,-1.,0.));
#347=DIRECTION('',(0.,0.,-1.));
#348=DIRECTION('',(0.,0.,-1.));
#349=DIRECTION('',(0.,-1.,0.));
#350=DIRECTION('',(0.,0.,1.));
#351=DIRECTION('',(-1.,0.,0.));
#352=DIRECTION('',(0.,0.,1.));
#353=DIRECTION('',(0.,0.,-1.));
#354=DIRECTION('',(-1.,0.,0.));
#355=DIRECTION('',(0.,0.,1.));
#356=DIRECTION('',(0.,1.,0.));
#357=DIRECTION('',(0.,0.,1.));
#358=DIRECTION('',(0.,1.,0.));
#359=DIRECTION('',(0.,0.,1.));
#360=DIRECTION('',(1.,0.,0.));
#361=DIRECTION('',(0.,1.,0.));
#362=DIRECTION('',(0.,0.,1.));
#363=DIRECTION('',(1.,0.,0.));
#364=DIRECTION('',(0.,1.,0.));
#365=DIRECTION('',(0.,0.,-1.));
#366=DIRECTION('',(-1.,0.,0.));
#367=DIRECTION('',(0.,0.,-1.));
#368=DIRECTION('',(-1.,0.,0.));
#369=DIRECTION('',(0.,0.,-1.));
#370=DIRECTION('',(-1.,0.,0.));
#371=DIRECTION('',(0.,0.,-1.));
#372=DIRECTION('',(-1.,0.,0.));
#373=DIRECTION('',(0.,0.,-1.));
#374=DIRECTION('',(-1.,0.,0.));
#375=DIRECTION('',(0.,0.,-1.));
#376=DIRECTION('',(0.,0.,1.));
#377=DIRECTION('',(1.,0.,0.));
#378=DIRECTION('',(0.,0.,-1.));
#379=DIRECTION('',(0.,0.,1.));
#380=DIRECTION('',(0.,0.,1.));
#381=DIRECTION('',(-1.,0.,0.));
#382=DIRECTION('',(0.,0.,1.));
#383=DIRECTION('',(0.,0.,1.));
#384=DIRECTION('',(0.,0.,1.));
#385=DIRECTION('',(1.,0.,0.));
#386=DIRECTION('',(0.,0.,1.));
#387=DIRECTION('',(1.,0.,0.));
#388=DIRECTION('',(0.,0.,-1.));
#389=DIRECTION('',(0.,0.,1.));
#390=DIRECTION('',(1.,0.,0.));
#391=DIRECTION('',(0.,0.,1.));
#392=DIRECTION('',(1.,0.,0.));
#393=DIRECTION('',(0.,0.,1.));
#394=DIRECTION('',(1.,0.,0.));
#395=DIRECTION('',(0.,0.,1.));
#396=DIRECTION('',(1.,0.,0.));
#397=DIRECTION('',(0.,0.,1.));
#398=DIRECTION('',(1.,0.,0.));
#399=CARTESIAN_POINT('',(0.,0.,0.));
#400=CARTESIAN_POINT('',(13.,15.,1.5));
#401=CARTESIAN_POINT('',(13.,6.75,1.5));
#402=CARTESIAN_POINT('',(13.,23.25,1.5));
#403=CARTESIAN_POINT('',(17.,23.25,1.5));
#404=CARTESIAN_POINT('',(21.,23.25,1.5));
#405=CARTESIAN_POINT('',(21.,15.,1.5));
#406=CARTESIAN_POINT('',(21.,6.75,1.5));
#407=CARTESIAN_POINT('',(17.,6.75,1.5));
#408=CARTESIAN_POINT('',(17.,0.,1.5));
#409=CARTESIAN_POINT('',(29.5,0.,1.5));
#410=CARTESIAN_POINT('',(4.5,0.,1.5));
#411=CARTESIAN_POINT('',(29.5,4.5,1.5));
#412=CARTESIAN_POINT('',(34.,4.5,1.5));
#413=CARTESIAN_POINT('',(34.,15.,1.5));
#414=CARTESIAN_POINT('',(34.,25.5,1.5));
#415=CARTESIAN_POINT('',(29.5,25.5,1.5));
#416=CARTESIAN_POINT('',(29.5,30.,1.5));
#417=CARTESIAN_POINT('',(17.,30.,1.5));
#418=CARTESIAN_POINT('',(4.5,30.,1.5));
#419=CARTESIAN_POINT('',(4.5,25.5,1.5));
#420=CARTESIAN_POINT('',(0.,25.5,1.5));
#421=CARTESIAN_POINT('',(0.,15.,1.5));
#422=CARTESIAN_POINT('',(0.,4.5,1.5));
#423=CARTESIAN_POINT('',(4.5,4.5,1.5));
#424=CARTESIAN_POINT('',(17.,15.,1.5));
#425=CARTESIAN_POINT('',(17.,0.,0.));
#426=CARTESIAN_POINT('',(4.5,0.,0.));
#427=CARTESIAN_POINT('',(29.5,0.,0.));
#428=CARTESIAN_POINT('',(29.5,0.,0.));
#429=CARTESIAN_POINT('',(4.5,0.,0.));
#430=CARTESIAN_POINT('',(17.,0.,0.));
#431=CARTESIAN_POINT('',(0.,25.5,0.));
#432=CARTESIAN_POINT('',(0.,25.5,0.));
#433=CARTESIAN_POINT('',(0.,15.,0.));
#434=CARTESIAN_POINT('',(0.,4.5,0.));
#435=CARTESIAN_POINT('',(0.,4.5,0.));
#436=CARTESIAN_POINT('',(0.,15.,0.));
#437=CARTESIAN_POINT('',(29.5,30.,0.));
#438=CARTESIAN_POINT('',(29.5,30.,0.));
#439=CARTESIAN_POINT('',(17.,30.,0.));
#440=CARTESIAN_POINT('',(4.5,30.,0.));
#441=CARTESIAN_POINT('',(4.5,30.,0.));
#442=CARTESIAN_POINT('',(17.,30.,0.));
#443=CARTESIAN_POINT('',(13.,6.75,0.));
#444=CARTESIAN_POINT('',(13.,6.75,0.));
#445=CARTESIAN_POINT('',(13.,23.25,0.));
#446=CARTESIAN_POINT('',(17.,6.75,0.));
#447=CARTESIAN_POINT('',(21.,6.75,0.));
#448=CARTESIAN_POINT('',(21.,6.75,0.));
#449=CARTESIAN_POINT('',(21.,23.25,0.));
#450=CARTESIAN_POINT('',(17.,23.25,0.));
#451=CARTESIAN_POINT('',(34.,15.,0.));
#452=CARTESIAN_POINT('',(34.,4.5,0.));
#453=CARTESIAN_POINT('',(34.,25.5,0.));
#454=CARTESIAN_POINT('',(29.5,4.5,0.));
#455=CARTESIAN_POINT('',(4.5,4.5,0.));
#456=CARTESIAN_POINT('',(4.5,25.5,0.));
#457=CARTESIAN_POINT('',(29.5,25.5,0.));
#458=CARTESIAN_POINT('',(17.,15.,0.));
#459=CARTESIAN_POINT('',(34.,4.5,0.));
#460=CARTESIAN_POINT('',(34.,25.5,0.));
#461=CARTESIAN_POINT('',(34.,15.,0.));
#462=CARTESIAN_POINT('',(13.,6.75,1.5));
#463=CARTESIAN_POINT('',(13.,23.25,1.5));
#464=CARTESIAN_POINT('',(13.,15.,1.5));
#465=CARTESIAN_POINT('',(21.,6.75,1.5));
#466=CARTESIAN_POINT('',(17.,6.75,1.5));
#467=CARTESIAN_POINT('',(21.,23.25,1.5));
#468=CARTESIAN_POINT('',(21.,15.,1.5));
#469=CARTESIAN_POINT('',(17.,23.25,1.5));
#470=CARTESIAN_POINT('',(29.5,4.5,0.));
#471=CARTESIAN_POINT('',(29.5,25.5,0.));
#472=CARTESIAN_POINT('',(4.5,25.5,0.));
#473=CARTESIAN_POINT('',(4.5,4.5,0.));
#474=MECHANICAL_DESIGN_GEOMETRIC_PRESENTATION_REPRESENTATION('',(#32),#475);
#475=(
GEOMETRIC_REPRESENTATION_CONTEXT(3)
GLOBAL_UNCERTAINTY_ASSIGNED_CONTEXT((#476))
GLOBAL_UNIT_ASSIGNED_CONTEXT((#482,#478,#477))
REPRESENTATION_CONTEXT('16 8092 000 001_01-Dichtung',
'TOP_LEVEL_ASSEMBLY_PART')
);
#476=UNCERTAINTY_MEASURE_WITH_UNIT(LENGTH_MEASURE(2.E-5),#482,
'DISTANCE_ACCURACY_VALUE','Maximum Tolerance applied to model');
#477=(
NAMED_UNIT(*)
SI_UNIT($,.STERADIAN.)
SOLID_ANGLE_UNIT()
);
#478=(
CONVERSION_BASED_UNIT('DEGREE',#480)
NAMED_UNIT(#479)
PLANE_ANGLE_UNIT()
);
#479=DIMENSIONAL_EXPONENTS(0.,0.,0.,0.,0.,0.,0.);
#480=PLANE_ANGLE_MEASURE_WITH_UNIT(PLANE_ANGLE_MEASURE(0.0174532925),#481);
#481=(
NAMED_UNIT(*)
PLANE_ANGLE_UNIT()
SI_UNIT($,.RADIAN.)
);
#482=(
LENGTH_UNIT()
NAMED_UNIT(*)
SI_UNIT(.MILLI.,.METRE.)
);
ENDSEC;
END-ISO-10303-21;
